Log in

One click and you are in

Login with Facebook Login with Google

Why sign up and log in

Guitar Tabs Explorer
Jimmy Cliff bass tabs for Give and take

Bass tabs

Tuning: Standard (E A D G)

Difficulty: Novice

Give And Take
Track released by Jimmy Cliff (born James Chambers) in 1967.
Tab by bass50611. Although it failed to chart in UK this is good early
Reggae. Released on Island Records. Easy Bassline
Intro:
G|------------------------------------------------------------|
D|------------------------------------------------------------|
A|-5--5--5--5--------------5--5--5--5--------------5--5--5--5-|
E|-------------7--7--7--7--------------7--7--7--7-------------|

G|------------------------|
D|------------------------|
A|------------------------|
E|-7--7--7--7--7--7--7--7-|


Verse 1:               (Play This Bit x2)
G|---------------------------------------------------|
D|-5--5--5--5---7--7--7--7---5--5--5--5---7--7--7--7-|
A|---------------------------------------------------|
E|---------------------------------------------------|


Chorus:
G|----------------------------------------------------|
D|----------------------------------------------------|
A|-5--5--5--5--5--5--5--5---0--0--0--0---5--5--5--5---|
E|------------5-------------------------------------5-|

G|--------------------------------------------------|
D|--------------------------------------------------|
A|-5--5--5--5--5--5--5--5---0--0--0--0---5--5--5--5-|
E|------------5-------------------------------------|

Verse 2:               (Play This Bit x2)
G|---------------------------------------------------|
D|-5--5--5--5-6-7--7--7--7---5--5--5--5-6-7--7--7--7-|
A|---------------------------------------------------|
E|---------------------------------------------------|


Chorus:
G|----------------------------------------------------|
D|----------------------------------------------------|
A|-5--5--5--5--5--5--5--5---0--0--0--0---5--5--5--5---|
E|------------5-------------------------------------5-|

G|--------------------------------------------------|
D|--------------------------------------------------|
A|-5--5--5--5--5--5--5--5---0--0--0--0---5--5--5--5-|
E|------------5-------------------------------------|

Interlude:
G|------------------------------------------------------------|
D|------------------------------------------------------------|
A|-5--5--5--5--------------5--5--5--5--------------5--5--5--5-|
E|-------------7--7--7--7--------------7--7--7--7-------------|

G|------------------------|
D|------------------------|
A|------------------------|
E|-7--7--7--7--7--7--7--7-|


Verse 3:               (Play This Bit x2)
G|---------------------------------------------------|
D|-5--5--5--5-6-7--7--7--7---5--5--5--5-6-7--7--7--7-|
A|---------------------------------------------------|
E|---------------------------------------------------|


Outro Chorus:            (Repeat To Fade/End)
G|----------------------------------------------------|
D|----------------------------------------------------|
A|-5--5--5--5--5--5--5--5---0--0--0--0---5--5--5--5---|
E|------------5-------------------------------------5-|

Almost there ...

Sign in to get your own page with links to favourite songs and more. You are just one click away...

Login with Facebook Login with Google