Log in

One click and you are in

Login with Facebook Login with Google

Why sign up and log in

Guitar Tabs Explorer
The Clash bass tabs for Death or glory

Bass tabs

🎸 Intro:
G|-------------------------------------------------|-------------------------12---------------------|
D|-------------------------------------------------|-12\10~------------12-10----12/14~--------------|
A|-------------------------------------------------|------------------------------------------------|
E|-------------------------------------------------|------------------------------------------------|
  1 + + + 2 + + + 3 + + + 4 + + +  1 + + + 2 + + + 3 + + + 4 + + +

G|-------------------------12----------------------|-------------------------12---------------------|
D|-12-10~------------12-10----12/14~---------------|-12-10~------------12-10----12/14~--------------|
A|-------------------------------------------------|------------------------------------------------|
E|-------------------------------------------------|------------------------------------------------|
  1 + + + 2 + + + 3 + + + 4 + + +  1 + + + 2 + + + 3 + + + 4 + + +

G|-------------------------12----------------------|-------------------------12---------------------|
D|-12-10~------------12-10----12/14~---------------|-12-10~------------12-10----12/14~---------\----|
A|-------------------------------------------------|------------------------------------------------|
E|-------------------------------------------------|------------------------------------------------|
  1 + + + 2 + + + 3 + + + 4 + + +  1 + + + 2 + + + 3 + + + 4 + + +

G|---------------------------------|---------------------------------|
D|---------------------------2-0---|---------------------------2-0---|
A|-------------------3-3.--3-----3-|-------------------3-3.--3-----3-|
E|-1.--1---1-1-1-1.----------------|-3---3.--3-3-3-3.----------------|
  1 + + + 2 + + + 3 + + + 4 + + +  1 + + + 2 + + + 3 + + + 4 + + +

G|---------------------------------|---------------------------------|
D|---------------------------2-0---|---------------------------------|
A|-------------------3-3.--3-----3-|---------------3~----------------|
E|-1.--1---1-1-1-1.----------------|-3---3.--3-3-5-------------------|
  1 + + + 2 + + + 3 + + + 4 + + +  1 + + + 2 + + + 3 + + + 4 + + +

🎸 Verse 1: "Now every cheap hood..."
G|---------------------------------|---------------------------------|
D|-----------------4h5-5-5-5-5-5-5-|-2h3-3-3-3---3-3---------5---3-2-|
A|-2h3-3-3-2h3-3-3-----------------|-----------------2h3-3-3---------|
E|---------------------------------|---------------------------------|
  1 + + + 2 + + + 3 + + + 4 + + +  1 + + + 2 + + + 3 + + + 4 + + +

G|---------------------------------|---------------------------------|
D|-----------------4h5-5-5-/5--5-5-|-/3--3-3-/3--3-3---------5---3\--|
A|-3---3-3-/3--3-3-----------------|-----------------3---3-3---------|
E|---------------------------------|---------------------------------|
  1 + + + 2 + + + 3 + + + 4 + + +  1 + + + 2 + + + 3 + + + 4 + + +

🎸 Chorus 1: "Death or glory..."
G|---------------------------------|---------------------------------|
D|---------------------------------|---------------------------2-0---|
A|-------------------3-3.--3-2---3-|-------------------3-3.--3-----3-|
E|-1.--1---1-1-1-1.------------3---|-3---3.--3-3-3-3.----------------|
  1 + + + 2 + + + 3 + + + 4 + + +  1 + + + 2 + + + 3 + + + 4 + + +

G|---------------------------------|---------------------------------|
D|---------------------------2-0---|---------------------------------|
A|-------------------3-3.--3-----3-|---------------3~----------------|
E|-1.--1---1-1-1-1.----------------|-3---3.--3-3-5-------------------|
  1 + + + 2 + + + 3 + + + 4 + + +  1 + + + 2 + + + 3 + + + 4 + + +

🎸 Verse 2: "'N' every gimmick..."
G|---------------------------------|---------------------------------|
D|-----------------4-5-5-5-5-5-5-5-|-2h3-3-3-2h3-3-3---------5---3-2-|
A|-2h3-3-3-2-3-3-3-----------------|----------------/3---3-3---------|
E|---------------------------------|---------------------------------|
  1 + + + 2 + + + 3 + + + 4 + + +  1 + + + 2 + + + 3 + + + 4 + + +

G|---------------------------------|---------------------------------|
D|-----------------4h5-5-5-4-5-5-5-|-/3--3-3-3---3-3---------5---3\--|
A|-3---3-3-/3--3-3-----------------|----------------/3---3-3---------|
E|---------------------------------|---------------------------------|
  1 + + + 2 + + + 3 + + + 4 + + +  1 + + + 2 + + + 3 + + + 4 + + +

🎸 Chorus 2: "Death or glory..."
G|---------------------------------|---------------------------------|
D|---------------------------2-0---|---------------------------2-0---|
A|-------------------3-3.--3-----3-|-------------------3-3.--3-----3-|
E|-1.--1---1-1-1-1.----------------|-3---3.--3-3-3-3.----------------|
  1 + + + 2 + + + 3 + + + 4 + + +  1 + + + 2 + + + 3 + + + 4 + + +

G|---------------------------------|---------------------------------|
D|---------------------------2-0---|---------------------------------|
A|-------------------3-3.--3-----3-|---------------3~----------------|
E|-1.--1---1-1-1-1.----------------|-3---3.--3-3-5-------------------|
  1 + + + 2 + + + 3 + + + 4 + + +  1 + + + 2 + + + 3 + + + 4 + + +

🎸 Bridge:       |-3-|               |-3-|
G|---------------------------------|---------------------------------|
D|-------------------222-2-5---2---|-------------------222-2-5---2---|
A|-------2-3-5-3-2-3---------------|-------2-3-5-3-2-3---------------|
E|-3.------------------------------|-3.------------------------------|
  1 + + + 2 + + + 3 + + + 4 + + +  1 + + + 2 + + + 3 + + + 4 + + +

G|---------------------------------|---------------------------------|
D|-------------------222-2-5---2---|-------------------222-2-5---2---|
A|-------2-3-5-3-2-3---------------|-------2-3-5-3-2-3---------------|
E|-3.------------------------------|-3.------------------------------|
  1 + + + 2 + + + 3 + + + 4 + + +  1 + + + 2 + + + 3 + + + 4 + + +

"Fear in the down sex..."
G|---------------------------------|---------------------------------|
D|---------------------2-2-5-5-3-2-|---------------------2-2-5-5-3-2-|
A|-----2-2-5-5-3-2-3-3-------------|-----2-2-5---3-2-3---------------|
E|-3-------------------------------|-3-------------------------------|
  1 + + + 2 + + + 3 + + + 4 + + +  1 + + + 2 + + + 3 + + + 4 + + +

G|---------------------------------|---------------------------------|
D|---------------------2-2-5-5-3-2-|---------------------2-2-5---3-2-|
A|-----2---5---3-2-3---------------|-----2-2-5-5-3-2-3---------------|
E|-3-------------------------------|-3-------------------------------|
  1 + + + 2 + + + 3 + + + 4 + + +  1 + + + 2 + + + 3 + + + 4 + + +

🎸 Chorus 3: "Death or glory..."
G|---------------------------------|---------------------------------|
D|---------------------------2-0---|---------------------------2-0---|
A|-------------------3-3.--3-----3-|-------------------3-3.--3-----3-|
E|-1.--1---1-1-1-1.----------------|-3---3.--3-3-3-3.----------------|
  1 + + + 2 + + + 3 + + + 4 + + +  1 + + + 2 + + + 3 + + + 4 + + +

G|---------------------------------|---------------------------------|
D|---------------------------2-0---|---------------------------------|
A|-------------------3-3.--3-----3-|---------------3~----------------|
E|-1.--1---1-1-1-1.----------------|-3---3.--3-3-5-------------------|
  1 + + + 2 + + + 3 + + + 4 + + +  1 + + + 2 + + + 3 + + + 4 + + +

🎸 Verse 3: "From every dingy basement..."
G|---------------------------------|---------------------------------|
D|---------------2-5-5-5-5-4-5-5-5-|-/3--3-3-/3--3-3---------5---3-2-|
A|-2h3-3-3-3-3-3-------------------|----------------/3---3-3---------|
E|---------------------------------|---------------------------------|
  1 + + + 2 + + + 3 + + + 4 + + +  1 + + + 2 + + + 3 + + + 4 + + +

G|---------------------------------|---------------------------------|
D|-----------------4h5-5-5-/5--5-5-|-/3--3-3-3---3-3---------5---3\--|
A|/3---3-3-/3--3-3-----------------|----------------/3---3-3---------|
E|---------------------------------|---------------------------------|
  1 + + + 2 + + + 3 + + + 4 + + +  1 + + + 2 + + + 3 + + + 4 + + +

🎸 Chorus 4: "Death or glory..."
G|---------------------------------|---------------------------------|
D|---------------------------2-0---|---------------------------2-0---|
A|-------------------3-3.--3-----3-|-------------------3-3.--3-----3-|
E|-1.--1---1-1-1-1.----------------|-3---3.--3-3-3-3.----------------|
  1 + + + 2 + + + 3 + + + 4 + + +  1 + + + 2 + + + 3 + + + 4 + + +

G|---------------------------------|---------------------------------|
D|---------------------------2-0---|---------------------------------|
A|-------------------3-3.--3-----3-|---------------3~----------------|
E|-1.--1---1-1-1-1.----------------|-3---3.--3-3-5-------------------|
  1 + + + 2 + + + 3 + + + 4 + + +  1 + + + 2 + + + 3 + + + 4 + + +

🎸 Bridge 2: "Gotta launch..."
G|-------------------------------------------------|-------------------------12---------------------|
D|-------------------------------------------------|-12-10~------------12-10----12/14~--------------|
A|-------------------------------------------------|------------------------------------------------|
E|-------------------------------------------------|------------------------------------------------|
  1 + + + 2 + + + 3 + + + 4 + + +  1 + + + 2 + + + 3 + + + 4 + + +

G|-------------------------12----------------------|-------------------------12---------------------|
D|-12-10~------------12-10----12/14~---------------|-12-10~------------12-10----12/14~--------------|
A|-------------------------------------------------|------------------------------------------------|
E|-------------------------------------------------|------------------------------------------------|
  1 + + + 2 + + + 3 + + + 4 + + +  1 + + + 2 + + + 3 + + + 4 + + +

G|-------------------------12----------------------|-------------------------12---------------------|
D|-12-10~------------12-10----12/14~---------------|-12-10~------------12-10----12/14~--------------|
A|-------------------------------------------------|------------------------------------------------|
E|-------------------------------------------------|------------------------------------------------|
  1 + + + 2 + + + 3 + + + 4 + + +  1 + + + 2 + + + 3 + + + 4 + + +

G|-------------------------12----------------------|-------------------------12---------------------|
D|-12-10~------------12-10----12/14~---------------|-12-10~------------12-10----12/14~--------------|
A|-------------------------------------------------|------------------------------------------------|
E|-------------------------------------------------|------------------------------------------------|
  1 + + + 2 + + + 3 + + + 4 + + +  1 + + + 2 + + + 3 + + + 4 + + +

G|-----2-5-----2-5-----------------|-----2-5-----2-5-----------------|
D|-3-3-----3-3---------2-5-----2-5-|-3-3-----3-3---------2-5-----2-5-|
A|-----------------3-3-----3-3-----|-----------------3-3-----3-3-----|
E|---------------------------------|---------------------------------|
  1 + + + 2 + + + 3 + + + 4 + + +  1 + + + 2 + + + 3 + + + 4 + + +

G|-----2-5-----2-5-----------------|-----2-5-----2-5-----------------|
D|-3-3-----3-3---------2-5-----2-5-|-3-3-----3-3---------2-5-----2-5\|
A|-----------------3-3-----3-3-----|-----------------3-3-----3-3-----|
E|---------------------------------|---------------------------------|
  1 + + + 2 + + + 3 + + + 4 + + +  1 + + + 2 + + + 3 + + + 4 + + +

🎸 Chorus 5: "Death or glory..."
G|---------------------------------|---------------------------------|
D|---------------------------2-0---|---------------------------2-0---|
A|-------------------3-3.--3-----3-|-------------------3-3.--3-----3-|
E|-1.--1---1-1-1-1.----------------|-3---3.--3-3-3-3.----------------|
  1 + + + 2 + + + 3 + + + 4 + + +  1 + + + 2 + + + 3 + + + 4 + + +

G|---------------------------------|---------------------------------|
D|---------------------------2-0---|---------------------------------|
A|-------------------3-3.--3-----3-|---------------3~----------------|
E|-1.--1---1-1-1-1.----------------|-3---3.--3-3-5-------------------|
  1 + + + 2 + + + 3 + + + 4 + + +  1 + + + 2 + + + 3 + + + 4 + + +

G|---------------------------------|---------------------------------|
D|---------------------------2-0---|---------------------------2-0---|
A|-------------------3-3.--3-----3-|-------------------3-3.--3-----3-|
E|-1.--1---1-1-1-1.----------------|-3---3.--3-3-3-3.----------------|
  1 + + + 2 + + + 3 + + + 4 + + +  1 + + + 2 + + + 3 + + + 4 + + +

G|---------------------------------|---------------------------------|
D|---------------------------2-0---|---------------------------------|
A|-------------------3-3.--3-----3-|---------------3~----------------|
E|-1.--1---1-1-1-1.----------------|-3---3.--3-3-5-------------------|
  1 + + + 2 + + + 3 + + + 4 + + +  1 + + + 2 + + + 3 + + + 4 + + +

************************************

| . Staccato
| / Slide up
| \ Slide down
| h Hammer-on
|-3-| Triplet

************************************

Almost there ...

Sign in to get your own page with links to favourite songs and more. You are just one click away...

Login with Facebook Login with Google