Log in

One click and you are in

Login with Facebook Login with Google

Why sign up and log in

Guitar Tabs Explorer
The Clash bass tabs for Capital radio one

Bass tabs

Capital Radio One - Clash


Duration 🏷Legend
---------------
W - whole
H - half
Q - quarter
E - 8th
S - 16th
   S S S S S S S S S S S S S S S S  S S S S S S S S S S S S S S S S
G||----------------------------------|----------------------------------|
D||--2-2-----------2-2-2-------------|--2-2-----------2-2-2-------------|
A||------4-2-2-2-4-------4-2-0-0-----|------4-2-2-2-4-------4-2-0-0-----|
E||------------------------------2-0-|------------------------------2-0-|


 S S S S S S S S S S S S S S S S  Q  E E Q  E E
----------------------------------|------------------------|
--2-2-----------2-2-2---------0-2-|----------2-------1--4--|
------4-2-2-2-4-------4-2-4-4-----|--0----4-----2----------|
----------------------------------|------------------------|


 S S E S S E S S E S S E   S S E S S E S S E S S E
------------------------------|------------------------------|
--2-2-----------2-2-----------|--2-2-----------2-2-----------|
---------2-2-----------0-0----|---------2-2-----------0-0----|
------------------------------|------------------------------|


 S S E S S E S S E S S E   Q  E E Q  E E
------------------------------|------------------------|
--2-2-----------2-2-----------|----------2-------1--4--|
---------2-2-----------4-4----|--0----4-----2----------|
------------------------------|------------------------|

 S S E S S E S S E S S E   S S E S S E S S E S S E
------------------------------|------------------------------|
--2-2-----------2-2-----------|--2-2-----------2-2-----------|
---------2-2-----------0-0----|---------2-2-----------0-0----|
------------------------------|------------------------------|


 Q  Q  H      Q  Q  H      S S S S S S S S S S S S S S S S
---------------------|---------------------|----------------------------------|
---------------------|------------2--------|--2-2-----------2-2-2-------------|
------------0--------|--0----2-------------|------4-2-2-2-4-------4-2-0-0-----|
--0----2-------------|---------------------|------------------------------2-0-|


 S S S S S S S S S S S S S S S S  S S S S S S S S S S S S S S S S
----------------------------------|----------------------------------|
--2-2-----------2-2-2-------------|--2-2-----------2-2-2---------0-2-|
------4-2-2-2-4-------4-2-0-0-----|------4-2-2-2-4-------4-2-4-4-----|
------------------------------2-0-|----------------------------------|


 Q  E E Q  E E   S S S S S S S S S S S S S S S S
------------------------|----------------------------------|
----------2-------1--4--|--2-2-----------2-2-2-------------|
--0----4-----2----------|------4-2-2-2-4-------4-2-0-0-----|
------------------------|------------------------------2-0-|


 S S S S S S S S S S S S S S S S  Q  Q  H      Q  Q  H
----------------------------------|---------------------|---------------------|
--2-2-----------2-2-2-------------|---------------------|------------2--------|
------4-2-2-2-4-------4-2-0-0-----|------------0--------|--0----2-------------|
------------------------------2-0-|--0----2-------------|---------------------|

 W     W     W
---------|----------|----------|
---------|----------|----------|
---------|----------|----------|
---------|----------|----------|


  E S S S S S S S S S S S S S S 16x
|-----------------------------------|
|*--2--2-2-------------------------*|
|*---------4-4-4-4-0-0-0-0-2-2-2-2-*|
|-----------------------------------|


The slow down bit:

  E S S E S S E S S E S S  E S S E S S E S S E S S  E S S E S S E S S E S S
|------------------------------|------------------------------|------------------------------||
|--2--2-2----------------------|--2--2-2----------------------|--2--2-2------------------1-2-||
|---------4--4-4-0--0-0-2--2-2-|---------4--4-4-0--0-0-2--2-2-|---------4--4-4-0--0-0-2------||
|------------------------------|------------------------------|------------------------------||

Thats all.
Have fun.

Almost there ...

Sign in to get your own page with links to favourite songs and more. You are just one click away...

Login with Facebook Login with Google