Log in

One click and you are in

Login with Facebook Login with Google

Why sign up and log in

Guitar Tabs Explorer
Kelly Clarkson tabs for Maybe

Guitar tabs with lyrics

Since there's no tab out there for this song, I thought I would give it a try. It's as
as I can get, and i'm pretty sure most of it is correct. I based the riff off of a live
instead of the cd. Here's a video of me playing it: www.youtube.com/watch v=lD3mb8uqQF4
Questions/comments: sportsfr3ak549@yahoo.com
Tuning: Standard


Intro/verse:

----------------------0--------x-------------------------------0---------x---|
----------0--------------------x------------------0----------------------x---|
----2-----2--------------2-----x-------2----------2---------------2------x---|
-------------------------------x------------2----------------------------x---|
-------------------------------x-----------------------------------------x---|
----0-----x-----0--------------x-------0----------x------0---------------x---|

-----------------------0---------x-------------------------0---------x------|
-----------0---------------------x----------------0------------------x------|
-----2-----2--------------2------x-----2---------2------------2------x------|
---------------------------------x---------0-------------------------x------|
---------------------------------x-----------------------------------x------|
-----3-----x-----3---------------x-----3---------x-----3-------------x---0--|

"all you have to do is hold me" (I don't really pluck in a specific pattern. I just
whatever strings sound good. haha)
A chord diagramC majorC A chord diagramE minorEm A2
A chord diagramC majorC A chord diagramE minorEm A2


Verse 2 (play the same riff as verse 1)
"without all the excuses..." play the chords above


Bridge: (listen for when to change notes. The A chord diagramE minorEm at the end is held for a while.
A chord diagramE minorEm A chord diagramG+G A chord diagramC majorC A2 A chord diagramE minorEm


Bridge 2: (Play this when the piano part comes, and all the way through till the music gets quiet.)
A chord diagramC majorC A chord diagramE minorEm A2

Other versions of Maybe

MaybeChords

Almost there ...

Sign in to get your own page with links to favourite songs and more. You are just one click away...

Login with Facebook Login with Google