Log in

One click and you are in

Login with Facebook Login with Google

Why sign up and log in

Guitar Tabs Explorer
Kelly Clarkson tabs for Behind these hazel eyes

Guitar tabs with lyrics

This song is great! Had to listen to it a lot to do this though..
This is my first attempt i think it's pretty close.
Here it is:


Intro:
/w distortion
e|----------------------------|
A chord diagramBB|----------------------------|
A chord diagramG+G|---77-----77----77----77----| (x1)
A chord diagramD MajorD|--4777---4779--4777--4779---|
A chord diagramA augmentedA|--4557---4559--4557--4559---|
A chord diagramE MajorE|--2--5---2--7--2--5--2--7---|
Verse:
clean
e|--------0----------0----------0---------------------|
b|---9-10----10----10---10-----0----------------5-----|
g|-------------11-----------6------6--------4---------|  (x8)
d|---------------------------------------6---------6--|
a|----------------------------------------------------|
A chord diagramE MajorE|----------------------------------------------------|
Seems like just yesterday
You were a part of me
I used to stand so tall
I used to be so strong
Your arms around me tight
Everything, it felt so right
Unbreakable, like nothin' could go wrong

/w distortion
e|--------------------|
b|--------------------|
g|--------------------|  (x1)
d|---4-7-4-7-4-7-77777|
a|---4-7-4-7-4-7-77777|
A chord diagramE MajorE|---2-9-2-9-2-9-99999|
Now I can't breathe
No, I can't sleep
I'm barely hanging on

Chorus:
/w distortion
e|-------------------------------------------|
A chord diagramBB|-------------------------------------------|
A chord diagramG+G|--------7777----77777-------7777----77777--| (x1)
A chord diagramD MajorD|---444447777777777777--444447777777777777--|
A chord diagramA augmentedA|---444445555777799999--444445555777799999--|
A chord diagramE MajorE|---22222----5555-------22222----5555-------|
Here I am, once again
I'm torn into pieces
Can't deny it, can't pretend
Just thought you were the one

e|----------------------------------|
b|----------------------------------|
g|---------7777---------------------|  (x1)
A chord diagramD MajorD|---4444447777999999999---444121212|
A chord diagramA augmentedA|---4444445555999999999---444121212|
A chord diagramE MajorE|---222222----777777777---222101010|
Broken up, deep inside
But you won't get to see the tears I cry
Behind these hazel eyes


Verse:
clean
e|--------0----------0----------0---------------------|
b|--9-10----10----10---10-----0----------------5------|
g|-------------11-----------6------6--------4---------|  (x8)
d|---------------------------------------6---------6--|
a|----------------------------------------------------|
A chord diagramE MajorE|----------------------------------------------------|
I told you everything
Opened up and let you in
You made me feel alright
For once in my life
Now all that's left of me
Is what I pretend to be
So together, but so broken up inside

e|------------------------|
b|------------------------|
g|------------------------|  (x1)
d|---4-7-4-7-4-7-77777-9/4|
a|---4-7-4-7-4-7-77777-9/4|
A chord diagramE MajorE|---2-9-2-9-2-9-99999-7/2|
'Cause I can't breathe
No, I can't sleep
I'm barely hangin' on


Chorus:
/w distortion
e|---------------------------------------------|
A chord diagramBB|---------------------------------------------|
A chord diagramG+G|----------7777----77777-------7777----77777--| (x1)
A chord diagramD MajorD|-----444447777777777777--444447777777777777--|
A chord diagramA augmentedA|-----444445555777799999--444445555777799999--|
A chord diagramE MajorE|-----22222----5555-------22222----5555-------|
Here I am, once again
I'm torn into pieces
Can't deny it, can't pretend
Just thought you were the one

e|----------------------------------|
b|----------------------------------|
g|---------7777---------------------|  (x1)
A chord diagramD MajorD|---4444447777999999999---444121212|
A chord diagramA augmentedA|---4444445555999999999---444121212|
A chord diagramE MajorE|---222222----777777777---222101010|
Broken up, deep inside
But you won't get to see the tears I cry
Behind these hazel eyes


Bridge:
/w distortion
e|--------------------|
b|--------------------|
g|---444447777--------|  (x4)
A chord diagramD MajorD|---4444477777777777-|
A chord diagramA augmentedA|---2222255557777777-|
A chord diagramE MajorE|------------9999999-|
Swallow me then spit me out
For hating you, I blame myself
Seeing you it kills me now

e|-----------------------|
A chord diagramBB|-----------------------|
A chord diagramG+G|--------7777----77777--| (x1)
A chord diagramD MajorD|---444447777777777777--|
A chord diagramA augmentedA|---444445555777799999--|
A chord diagramE MajorE|---22222----5555-------|
No, I don't cry on the outside
Anymore...

clean
e|--------0----------0----------0---------------------|
b|--9-10----10----10---10-----0----------------5------|
g|-------------11-----------6------6--------4---------|  (x4)
d|---------------------------------------6---------6--|
a|----------------------------------------------------|
A chord diagramE MajorE|----------------------------------------------------|


Chorus:
/w distortion
e|----------------------------------------------------------------|
A chord diagramBB|----------------------------------------------------------------|
A chord diagramG+G|--------7777----77777-------7777----77777--------7777-----------| (x2)
A chord diagramD MajorD|---444447777777777777--444447777777777777--4444447777999999999--|
A chord diagramA augmentedA|---444445555777799999--444445555777799999--4444447777999999999--|(lyricsx2)
A chord diagramE MajorE|---22222----5555-------22222----5555-------222222----777777777--|
Here I am, once again
I'm torn into pieces
Can't deny it, can't pretend
Just thought you were the one
Broken up, deep inside
But you won't get to see the tears I cry
Behind these hazel eyes

e|------------|
b|------------|
g|------------|  (x1)
A chord diagramD MajorD|---444121212|
A chord diagramA augmentedA|---444121212|
A chord diagramE MajorE|---222101010|
Behind these hazel eyes...

Any corrections queries e-mail me @ lil_lama@hotmail.com

Other versions of Behind These Hazel Eyes

Behind these hazel eyesChords
Behind these hazel eyes (Ver. 2)Chords
Behind these hazel eyes acousticChords

Almost there ...

Sign in to get your own page with links to favourite songs and more. You are just one click away...

Login with Facebook Login with Google