Log in

One click and you are in

Login with Facebook Login with Google

Why sign up and log in

Guitar Tabs Explorer
Clairo bass tabs for Sofia

Bass tabs

Tuning: Standard (E A D G)


Intro:
Start with the vocals. First line of each section for reference.

i think we could do it if we tried
G|---------------------------------------------------------------------------|
D|---------------------------------------------------------------------------|
A|8-8-8-8-8-8-8-8------------------------------------------------------------|
E|----------------7-7-7-7-7-7-7-12-12-12-12-12-12-12-12-5-5-5-5-5-5-5-5------| x4

Verse 1:

You know I'll do anything you ask me to
G|---------------------------------------------------------------------------|
D|---------------------------------------------------------------------------|
A|8-8-8-8-8-8-8-8-5-5-5-5-5-5-5-5-3-3-3-3-3-3-3-3-0-0-0-0-2-2-2-2------------|
E|---------------------------------------------------------------------------| x2

Standing here alone now
G|---------------------------------------------------------------------------|
D|---------------------------------------------------------------------------|
A|8-8-8-8-8-8-8-8-3-3-3-3-3-3-3-3-8-8-8-8-8-8-8-8-5-5-5-5-5-5-5-5------------|
E|---------------------------------------------------------------------------| x2


Chorus + Instrumental:

I think we could do it if we tried
G|---------------------------------------------------------------------------|
D|---------------------------------------------------------------------------|
A|8-8-8-8-8-8-8-8------------------------------------------------------------|
E|----------------7-7-7-7-7-7-7-12-12-12-12-12-12-12-12-5-5-5-5-5-5-5-5------|x4


Bridge:

Honey, I don't want it to fade
G|---------------------------------------------------------------------------|
D|---------------------------------------------------------------------------|
A|8-8-8-8-8-8-8-8-5-5-5-5-5-5-5-5-3-3-3-3-3-3-3-3-0-0-0-0-2-2-2-2------------|
E|---------------------------------------------------------------------------| x2


Chorus:and kinda most of the ending bit

I think we could do it if we tried
G|---------------------------------------------------------------------------|
D|---------------------------------------------------------------------------|
A|8-8-8-8-8-8-8-8------------------------------------------------------------|
E|----------------7-7-7-7-7-7-7-12-12-12-12-12-12-12-12-5-5-5-5-5-5-5-5------|x5


Outro:
We could do it if we tried
G|---------------------------------------------------------------------------|
D|---------------------------------------------------------------------------|
A|8-8-8-8-8-8-8-8------------------------------------------------------------|
E|----------------7-7-7-7-7-7-7-12-12-12-12-12-12-12-12-5--------------------|

Almost there ...

Sign in to get your own page with links to favourite songs and more. You are just one click away...

Login with Facebook Login with Google