Log in

One click and you are in

Login with Facebook Login with Google

Why sign up and log in

Guitar Tabs Explorer
Clairo bass tabs for Sis

Bass tabs

Tuning: Standard (E A D G)


Intro:

G|---------------------------------------------------------------------------|
D|---------------------------------------------------------------------------|
A|0-0--0-0-0--2-2--2-2-2-----------------------------------------------------| x2
E|---------------------------------------------------------------------------|

Verse 1:
"feelings are so fragile"

G|---------------------------------------------------------------------------|
D|---------------------------------------------------------------------------|
A|0-0--0-0-0--2-2--2-2-2-----------------------------------------------------| x4
E|---------------------------------------------------------------------------|


Chorus:
"brittle bones hold my body together"

G|---------------------------------------------------------------------------|
D|---------------------------------------------------------------------------|
A|---------------------------------------------------------------------------| x4
E|4--4--2--2-----------------------------------------------------------------|


Bridge:

G|---------------------------------------------------------------------------|
D|---------------------------------------------------------------------------|
A|7-7-7-7-7-7-7-7-7-7-7-7----------------------------------------------------|
E|---------------------------------------------------------------------------|

G|---------------------------------------------------------------------------|
D|---------------------------------------------------------------------------|
A|0-0--0-0-0--2-2--2-2-2-----------------------------------------------------| x4
E|---------------------------------------------------------------------------|




Outro:

G|---------------------------------------------------------------------------|
D|---------------------------------------------------------------------------|
A|---------------------------------------------------------------------------| x4
E|4--4--2--2------------------------------------------------------------------|

G|---------------------------------------------------------------------------|
D|---------------------------------------------------------------------------|
A|7--------------------------------------------------------------------------|
E|---------------------------------------------------------------------------|

Almost there ...

Sign in to get your own page with links to favourite songs and more. You are just one click away...

Login with Facebook Login with Google