Log in

One click and you are in

Login with Facebook Login with Google

Why sign up and log in

Guitar Tabs Explorer
Clairo bass tabs for Bags

Bass tabs

Tuning: Standard (E A D G)

🎸 Intro:
No bass
🎸 Verse 1:
No bass


🎸 Pre-Chorus:
Start on "Can you see me waiting for the right time..."

G|---------------------------------------------------------------------------|
D|---------------------------------------------------------------------------|
A|---------------------------------1-1-1-1-1-1-1-1---------------------------|
E|-2-2-2-2-2-2-2-2-2-2-2-2-2-2-2-2-----------------4-4-4-4-4-4-4-4-----------| x2


🎸 Chorus:
"Walking out the door with your bags..."

G|---------------------------------------------------------------------------|
D|---------------------------------------------------------------------------|
A|---------------------------------1-1-1-1-1-1-1-1---------------------------|
E|-2-2-2-2-2-2-2-2-2-2-2-2-2-2-2-2-----------------4-4-4-4-4-4-4-4-----------|

G|---------------------------------------------------------------------------|
D|---------------------------------------------------------------------------|
A|---------------------------------4-1-1-1-1-1-1-1---------------------------|
E|-2-2-2-2-2-2-2-2-2-2-2-2-2-2-2-2-----------------4-4-4-4-4-4-4-4-----------|


🎸 Interlude:

G|---------------------------------------------------------------------------|
D|---------------------------------------------------------------------------|
A|---------------------------------1-1-1-1-1-1-1-1---------------------------|
E|-2-2-2-2-2-2-2-2-2-2-2-2-2-2-2-2-----------------4-4-4-4-4-4-4-0-----------|

G|---------------------------------------------------------------------------|
D|---------------------------------------------------------------------------|
A|-------------------------------4-1-1-1-1-1-1-1-1---------------------------|
E|-2-2-2-2-2-2-2-2-2-2-2-2-2-2-2-------------------4-4-4-4-4-4---------------|

🎸 Verse 2:
"Pour your glass of wine..."

G|---------------------------------------------------------------------------|
D|---------------------------------------------------------------------------|
A|---------------------------------1-1-1-1-1-1-1-1---------------------------|
E|-2-2-2-2-2-2-2-2-2-2-2-2-2-2-2-2-----------------4-4-4-4-4-4-4-4-----------|

G|---------------------------------------------------------------------------|
D|---------------------------------------------------------------------------|
A|---------------------------------4-1-1-1-1-1-1-1---------------------------|
E|-2-2-2-2-2-2-2-2-2-2-2-2-2-0-2-4-----------------4-4-4-4-4-4-4-4-----------|


🎸 Pre-Chorus:
"I don't wanna be forward..."

G|---------------------------------------------------------------------------|
D|---------------------------------------------------------------------------|
A|---------------------------------1-1-1-1-1-1-1-1---------------------------|
E|-2-2-2-2-2-2-2-2-2-2-2-2-2-2-2-2-----------------4-4-4-4-4-4-4-0-----------|

G|---------------------------------------------------------------------------|
D|---------------------------------------------------------------------------|
A|---------------------------------1-1-1-1-1-1-1-1---------------------------|
E|-2-2-2-2-2-2-2-2-2-2-2-2-2-2-2-2-----------------4-4-4-4-4-4-4-4-----------|


🎸 Interlude:

G|---------------------------------------------------------------------------|
D|---------------------------------------------------------------------------|
A|---------------------------------1-1-1-1-1-1-1-1---------------------------|
E|-2-2-2-2-2-2-2-2-2-2-2-2-2-2-2-2-----------------4-4-4-4-4-4-4-4-----------|

G|---------------------------------------------------------------------------|
D|---------------------------------------------------------------------------|
A|-------------------------------4-1-1-1-1-1-1-1-1-1-------------------------|
E|-2-2-2-2-2-2-2-2-2-2-2-2-2-2-2---------------------4-4-4-4-4-4-------------|

🎸 Verse 3:
"Tell you how I felt..."

G|---------------------------------------------------------------------------|
D|---------------------------------------------------------------------------|
A|---------------------------------1-1-1-1-1-1-1-1---------------------------|
E|-2-2-2-2-2-2-2-2-2-2-2-2-2-2-2-2-----------------4-4-4-4-4-4-4-4-----------|

G|---------------------------------------------------------------------------|
D|---------------------------------------------------------------------------|
A|-------------------------------4-1-1-1-1-1-1-1-1---------------------------|
E|-2-2-2-2-2-2-2-2-2-2-2-2-0-2-4-------------------4-4-4-4-------------------|


🎸 Bridge:
No bass until right before the 3rd "Now you make fun of me..."

G|---------------------------------------------------------------------------|
D|---------------------------------------------------------------------------|
A|---------------------------------1-1-1-1-1-1-1-1---------------------------|
E|-2-2-2-2-2-2-2-2-2-2-2-2-2-2-2-2-----------------4-4-4-4-4-4---------------|


🎸 Pre-Chorus:
"Can you see me? I'm waiting for the right time..."

G|---------------------------------------------------------------------------|
D|---------------------------------------------------------------------------|
A|---------------------------------1-1-1-1-1-1-1-1---------------------------|
E|-2-2-2-2-2-2-2-2-2-2-2-2-2-2-2-2-----------------4-4-4-4-4-4-4-0-----------|

G|---------------------------------------------------------------------------|
D|---------------------------------------------------------------------------|
A|---------------------------------1-1-1-1-1-1-1-1-----------3-4-------------|
E|-2-2-2-2-2-2-2-2-2-2-2-2-2-2-2-2-----------------4-4-4-4-4-----0-----------|


🎸 Chorus:
"Walking out the door with your bags..."

G|---------------------------------------------------------------------------|
D|---------------------------------------------------------------------------|
A|---------------4---------------4-1-1-1-1-1-1-1-4---------------------------|
E|-2-2-2-2-2-2-2---2-2-2-2-2-2-2-------------------4-4-4-4-4-4-4-0-----------| x2

G|---------------------------------------------------------------------------|
D|---------------6-4-4-4-4-3---------------------1---------------3-----------|
A|-----------4---------------6-4-3-1-1-1-1-1-1-1-------------3-4-------------|
E|-2-2-2-2-2---4-----------------------------------4-4-4-4-4-----------------|

G|---------------------------------------------------------------------------|
D|-4-4-4-4-4-4-4-------------------------------------------------------------|
A|--------------4---------------4-1-1-1-1-1-1-1-1----------------------------|
E|----------------2-2-2-2-2-2-2-------------------4-4-4-4-4-4-4-0-2~---------|


🎸 Outro:
No bass


| ~  Vibrato

Almost there ...

Sign in to get your own page with links to favourite songs and more. You are just one click away...

Login with Facebook Login with Google