Log in

One click and you are in

Login with Facebook Login with Google

Why sign up and log in

Guitar Tabs Explorer
Clairo bass tabs for 4ever

Bass tabs with lyrics

Tuning: Standard (E A D G)

You'll need a 5-string bass for this song.
This tab is 100% based on DarthMart's rendition (see their Youtube channel).
Credits go entirely to DarthMart.
Check out the video of the tab to better understand how to play it:
https://www.youtube.com/watch v=XRkTBSViOV4
-----------------------------------------------------
Intro:

No bass for 2 bars, then:

G|--------------------------|
D|----------------------5---|
A|--------------------3-----|
E|-1--1--1--1--1--1--1-3--5-|
B|--------------------------|



Verse 1:

Some things just aren't that simple
G|--------------------------------|
D|---7-----7----------------------|
A|------------------7--5-7-----0--|
E|-5--0-3/5-5--0-(0)-------0-0----|
B|------------------------0-------|

You called me wondering why I changed
G|-------------------------------------------|
D|------------------3---------5-----7--------|
A|-------------------0-----------------------|
E|-1--1-x-1-1--1-(1)------1--3-3-5----0-3/5--|
B|----------------------1--------------------|

Or why I don't look the same
G|----------------------|
D|-7--------------------|
A|---------7--5-7-------|
E|--5-0-(0)--------0-1--|
B|---------------0------|

Why I think so differently now
G|---------------------------------|
D|------------3-------3-------5-7--|
A|---------------------------------|
E|--(1)-1-x-1---1--(1)-1--1--3-----|
B|-----------------------1---------|



Chorus:

Is it ever gonna change? Am I gonna feel this way forever?
G|----------------------------|
D|---7-----7------------------|
A|------------------7--5-7----|
E|-5--0-3/5-5--0-(0)----------|
B|------------------------0---|

Are you gonna be around for me to count on?
G|-----------------------------------|
D|-----------3--------3----------5---|
A|-----------------------------------|
E|-0-1--1-x-1-1--1-(1)--1----1--3-3--|
B|--0----------------------1---------|

Is it ever gonna change? Am I gonna feel this way forever?
G|----------------------------|
D|---7-----7------------------|
A|------------------7--5-7----|
E|-5--0-3/5-5--0-(0)----------|
B|------------------------0---|

Are you gonna be around for me to count on? Count on
G|-------------------------------------|
D|-------------3---------3---------5---|
A|----0--------------------------------|
E|-0-0-1--1-x-1-1--(1)----1----1--3-3--|
B|---------------------------1---------|

On-on-on, on-on-on-on-on
G|----------------------------|
D|---7-----7------------------|
A|------------------7--5-7----|
E|-5--0-3/5-5--0-(0)----------|
B|------------------------0---|

On-on-on, on-on-on-on-on
G|---------------------------------|
D|-------------3------3--------5---|
A|----0----------------------------|
E|-0-0-1--1-x-1--1-(1)-0---1--3-3--|
B|------------------------1--------|

On-on-on, on-on-on-on-on
G|--------------------------------|
D|---7-----7----------------------|
A|------------------7--5-7-----0--|
E|-5--0-3/5-5--0-(0)--------0-0---|
B|------------------------0-------|

On-on-on, on-on-on-on-on
G|-----------------------------|
D|---------3------3--------5---|
A|-----------------0-----------|
E|-1--1-x-1--1-(1)-----1--3----|
B|--------------------1--------|



Verse 2:

Some things just never seem to fade
G|-----------------------------|
D|-----------------------------|
A|---------3-------7-7-5-7-----|
E|-5--0-3/5-5--0-(0)-------0---|
B|------------------------0-0--|

I'm thinking about how we were on our first date
G|------------------------|
D|--------------3---------|
A|------------------3-5---|
E|-1--1--1--1-(1)--1-3-3--|
B|--------1-------1-------|


You understood the words I was saying
G|--------------------------------|
D|---7-----7----------------------|
A|------------------7--5-7-----0--|
E|-5--0-3/5-5--0-(0)-------0-0----|
B|------------------------0-------|

I knew I'd never let you get away
G|-----------------------------|
D|------------------3------5---|
A|-----------------------------|
E|-1--1-x-1-x--1-(1)---1--3-3--|
B|--------------------1--------|


Bridge:

Hold you tight, squeeze you right, tell you what I want
G|-------------------------------|
D|---7---------------------------|
A|---------3--------7-7-5-7--0---|
E|-5--0-3/5-5--0-(0)--------0----|
B|-------------------------0--0--|

Put me in your bedroom and I'll sing a little song
G|-----------------------------|
D|--------3--------3-------5---|
A|------------------0----------|
E|-1--1--1-1--1-(1)----1--3-3--|
B|--------------------1--------|

Hold you tight, squeeze you right, give you all I've got
G|--------------------------------|
D|---7-----7----------------------|
A|------------------7--5-7-----0--|
E|-5--0-3/5-5--0-(0)-------0-0----|
B|------------------------0-------|

See you in the morning, over coffee, we'll talk, oh
G|-----------------------------|
D|---------3-------3-----------|
A|-----------------------------|
E|-1--1-x-1--1-(1)---1--1--3---|
B|--------------------1--------|


Chorus:

No bass for 8 bars:

Is it ever gonna change? Am I gonna feel this way forever?
G|----------------------------|
D|----------------------------|
A|----------------------------|
E|----------------------------|
B|----------------------------|

Are you gonna be around for me to count on?
G|----------------------------|
D|----------------------------|
A|----------------------------|
E|----------------------------|
B|----------------------------|

Is it ever gonna change? Am I gonna feel this way forever?
G|----------------------------|
D|----------------------------|
A|----------------------------|
E|----------------------------|
B|----------------------------|

Are you gonna be around for me to count on? Count on
G|----------------------------|
D|----------------------------|
A|----------------------------|
E|----------------------------|
B|----------------------------|

On-on-on, on-on-on-on-on
G|----------------------------------|
D|-----------7----------------------|
A|--------------------7--5-7-----0--|
E|-5--5-0-3/5-5--0-(0)-------0-0----|
B|--------------------------0-------|

On-on-on, on-on-on-on-on
G|-----------------------------|
D|--------3--------3-------5---|
A|-----------------------5-----|
E|-1--1--1-1--1-(1)-----1-3-3--|
B|--------------------1--------|

On-on-on, on-on-on-on-on
G|-------------------------------|
D|--7-------7--------------------|
A|-------------------7-7-5-7--0--|
E|-5---0-3/5-5--0-(0)--------0---|
B|--------------------------0----|

On-on-on, on-on-on-on-on
G|----------------------------|
D|--------3-------3-------5---|
A|-----------------0----5-----|
E|-1--1--1-1-(1)-------1-3-3--|
B|-------------------1--------|


Outro:

G|-------------------------------|
D|--7-------7--------------------|
A|-------------------7-7-5-7--0--|
E|-5---0-3/5-5--0-(0)--------0---|
B|--------------------------0----|

G|-----------------------------|
D|--------3--------3-------5---|
A|------------------0----------|
E|-1--1--1-1--1-(1)----1--3-3--|
B|--------------------1--------|

G|-------------------------------|
D|--7-------7--------------------|
A|-------------------7-7-5-7-----|
E|-5---0-3-5-5--0-(0)--------0---|
B|--------------------------0-0--|

G|-----------------------------|
D|--------3--------3----3------|
A|------------------0----------|
E|-1--1--1-1--1-(1)----1--3----|
B|--------------------1--------|


************************************

| (n) Ghost note
| /  Slide up
| x  Dead note

************************************

Almost there ...

Sign in to get your own page with links to favourite songs and more. You are just one click away...

Login with Facebook Login with Google