Log in

One click and you are in

Login with Facebook Login with Google

Why sign up and log in

Guitar Tabs Explorer
Circus bass tabs for Do you dream

Bass tabs

Tuning: EADG

0:13

G|14--------------14--------------14------------------------------|
D|----14--11--14------14--11--14------11--------------------------|
A|----------------------------------------------------------------|
E|--------------------------------------------5-------------------|

G|14------------------14------------------------------------------|
D|----14--11--14--12------12--14----------------------------------|
A|------------------------------------------------------------11--|
E|--------------------------------12--------------12--14----------|

G|--------------------14------------------------------------------|
D|----------------12------12--14----------------------------------| x2
A|12----------------------------------------------------------11--|
E|--------------------------------12--------------12--14----------|

G|--------------------14------------------------------------------|
D|----------------12------12--14----------------------------------|
A|12--------------------------------------------------------------|
E|--------------------------------12------------------------------|

0:34

G|----------------------------------------------------------------|
D|----------------------------------------------------------------| x3
A|12--------------------------------------------------------------|
E|----------------10--------------12------------------------------|

0:47

G|14------------------------------14------------------------------|
D|----14--11--14------14--11--14------11--------------------------|
A|----------------------------------------------------------------|
E|--------------------------------------------5-------------------|

G|14------------------14------------------------------------------|
D|----14--11--14--12------12--14----------------------------------|
A|------------------------------------------------------------11--|
E|--------------------------------12--------------12--14----------|

G|--------------------14------------------------------------------|
D|----------------12------12--14----------------------------------| x2
A|12----------------------------------------------------------11--|
E|--------------------------------12--------------12--14----------|

G|--------------------14------------------------------------------|
D|----------------12------12--14----------------------------------|
A|12--------------------------------------------------------------|
E|--------------------------------12------------------------------|

1:08

G|----------------------------------------------------------------|
D|----------------------------------------------------------------| x3
A|12--------------------------------------------------------------|
E|----------------10--------------12------------------------------|

1:21

G|14--------------14--------------14------------------------------|
D|----14--11--14------14--11--14------11--------------------------|
A|----------------------------------------------------------------|
E|--------------------------------------------5-------------------|

G|14------------------14------------------------------------------|
D|----14--11--14--12------12--14----------------------------------|
A|------------------------------------------------------------11--|
E|--------------------------------12--------------12--14----------|

G|--------------------14------------------------------------------|
D|----------------12------12--14----------------------------------| x3
A|12----------------------------------------------------------11--|
E|--------------------------------12--------------12--14----------|

1:42

G|--------------------14------------------------------------------|
D|----------------12------12--14----------------------------------| x3
A|12----------------------------------------------------------11--|
E|--------------------------------12--------------12--14----------|

G|--------------------14------------------------------------------|
D|----------------12------12--14----------------------------------|
A|12--------------------------------------------------------------|
E|--------------------------------12------------------------------|

1:58

G|----------------------------------------------------------------|
D|----------------------------------------------------------------| x3
A|12--------------------------------------------------------------|
E|----------------10--------------12------------------------------|

G|----------------------------------------------------------------|
D|----------------------------------------------------------------|
A|----------------------------------------------------------------|
E|5-------5-------5---------------5---------------5---------------|

2:16

G|----------------------------------------------------------------|
D|----------------------------------------------------------------| x3
A|12--------------------------------------------------------------|
E|----------------10--------------12------------------------------|

G|----------------------------------------------------------------|
D|----------------------------------------------------------------| until fadeout.
A|12--12--12--12--12--12--12--12--12--12--12--12--12--12--12--12--|

Almost there ...

Sign in to get your own page with links to favourite songs and more. You are just one click away...

Login with Facebook Login with Google