Log in

One click and you are in

Login with Facebook Login with Google

Why sign up and log in

Guitar Tabs Explorer
Circa Waves bass tabs for Young chasers

Bass tabs

Tabbed by Jonathan Duong

Listen to song for better timing.


[Intro]              Second time start here
G|-------------------------------|----------------------------------------------------|
D|-------------------------------|----------------------------------------------------|
A|-------------------------------|----------------------------------------------------|
E|-0-0-0-0-0-0-0-0-0-0-0-0-0-0-0-|-0-0-0-0-0-0-0-0-0-0-0-0-0-0-0----------------------|

G|------------------------------------------------------------------------------------|
D|------------------------------------------------------------------------------------|
A|------------------------------------------------------------------------------------| X2
E|-5-5-5-5-5-5-5-5--7-7-7-7-7-7-7-----------------------------------------------------|



[Verse 1]                             Add on second time
G|----------------------------------------------------------------|-------------------|
D|----------------------------------------------------------------|-------------------|
A|----------------------------------------------------------------|-------------------| X2
E|-0-0-0-0-0-0-0-0-0-0-0-0-0-0-0--5-5-5-5-5-5-5-5--7-7-7-7-7-7-7--|-2--4--------------|


[Chorus]
G|------------------------------------------------------------------------------------|
D|------------------------------------------------------------------------------------|
A|------------------------------------------------------------------------------------|
E|-0-0-0-0-0-0-0-0-0-0-0-0-0-0-0-0--2-2-2-2-2-2-2-2-2-2-2-2-2-2-2-2-------------------|

G|------------------------------------------------------------------------------------|
D|------------------------------------------------------------------------------------|
A|------------------------------------------------------------------------------------| X2
E|-4-4-4-4-4-4-4-4-4-4-4-4-4-4-4-4--5-5-5-5-5-5-5-5-5-5-5-5-5-5-5-5-------------------|

G|------------------------------------------------------------------------------------|
D|------------------------------------------------------------------------------------|
A|------------------------------------------------------------------------------------| X2
E|-0-0-0-0-0-0-0-0-0-0-0-0-0-0-0--5-5-5-5-5-5-5-5--7-7-7-7-7-7-7----------------------|


[Verse 2]
G|------------------------------------------------------------------------------------|
D|------------------------------------------------------------------------------------|
A|------------------------------------------------------------------------------------|
E|-0--0-5--5-7--7-0---0--0-5--5-7--7-2-4----------------------------------------------|


[Chorus]
G|------------------------------------------------------------------------------------|
D|------------------------------------------------------------------------------------|
A|------------------------------------------------------------------------------------|
E|-0-0-0-0-0-0-0-0-0-0-0-0-0-0-0-0--2-2-2-2-2-2-2-2-2-2-2-2-2-2-2-2-------------------|

G|------------------------------------------------------------------------------------|
D|------------------------------------------------------------------------------------|
A|------------------------------------------------------------------------------------| X2
E|-4-4-4-4-4-4-4-4-4-4-4-4-4-4-4-4--5-5-5-5-5-5-5-5-5-5-5-5-5-5-5-5-------------------|


[Solo]
G|------------------------------------------------------------------------------------|
D|------------------------------------------------------------------------------------|
A|------------------------------------------------------------------------------------| X3
E|-0-0-0-0-0-0-0-0-0-0-0-0-0-0-0--5-5-5-5-5-5-5-5--7-7-7-7-7-7-7----------------------|

G|------------------------------------------------------------------------------------|
D|------------------------------------------------------------------------------------|
A|------------------------------------------------------------------------------------|
E|-0-0-0-0-0-0-0-0-0-0-0-0-0-0-0--5-5-5-5-5-5-5-5--7-7-7-7-7-7-7--0-------------------|
ⓘ Bass guitar tab for 'Young Chasers' by Circa Waves, an indie rock band formed in 2013 from Liverpool, England, UK. Circa Waves is known for their excitable rock/pop music.

Almost there ...

Sign in to get your own page with links to favourite songs and more. You are just one click away...

Login with Facebook Login with Google