Log in

One click and you are in

Login with Facebook Login with Google

Why sign up and log in

Guitar Tabs Explorer
Circa Waves bass tabs for Wake up

Bass tabs

Tuning: Standard (E A D G)

Difficulty: Novice


Intro:

G|--------------------------------| (x4)
D|--------------------------------|
A|---------------2-2--------------|
E|-5--5-5-4--4-4-----4-2----------|

G|---------------------------------------------------------| (x2)
D|---------------------------------------------------------|
A|-----------------------------------------------2-2-------|
E|-2-2-2-2-2-2-2-2-2-2-2-2-2-2-2-2-5--5-5-4--4-4-----4-2---|



Verse:

G|---------------------------------------------------------------------| (x6)
D|---------------------------------------------------------------------|
A|---------------------------------------------------------------------|
E|-2-2-2-2-2-2-2-2-2-2-2-2-2-2-2-2-2-2-2-2-2-2-2-2-2-2-2-2-2-2-2-2-2-2-|


Pre-Chorus: open doors...


G|---------------------------------------------------------------------|
D|-4-4-4-4-4-4-4-4---4---4---4-4-4-|/6-6-6-6-6-6-6-6---6---6---6-6-6---|
A|---------------------------------------------------------------------|
E|---------------------------------------------------------------------|

G|---------------------------------------------------------------------|
D|-7-7-7-7-7-7-7-7--/9---9---9-9-9-|-6-6-6-6-6-6-6-6-6-6-6-6-6-6-6-6---|
A|---------------------------------------------------------------------|
E|---------------------------------------------------------------------|



Chorus:

G|---------------------------------------------------------------------|
D|---------------------------------------------------------------------|
A|-------------------------------------------------2---2---2---2-------|
E|-5---5---5---5---5---5---5---5---5---5---5---5-----------------------|

G|---------------------------------------------------------------------|
D|---------------------------------------------------------------------|
A|---------------------------------------------------------------------|
E|-2---2---2---2---2---2---2---2---2---2---2---2---4---4---4---4-------|

G|---------------------------------------------------------------------|
D|---------------------------------------------------------------------|
A|-2---2---2---2---2---2---2---2---2---2---2---2---4---4---4---4-------|
E|---------------------------------------------------------------------|

G|---------------------------------------------------------------------|
D|---------------------------------------------------------------------|
A|-5-5-5-5-5-5-5-5-|-5-5-5-5-5-5-5-5-7-7-7-7-7-7-7-7-7-7-7-7-x-x-x-x---|
E|---------------------------------------------------------------------|

Post-Chorus:

G|-------------------------------------------------------------|
D|-------------------------------------------------------------|
A|---------------------------------------------------2-2-------|
E|-2-2-2-2-2-2-2-2-|-2-2-2-2-2-2-2-2-|-5--5-5-4--4-4-----4-2---|

G|---------------------------------------------------------|
D|---------------------------------------------------------|
A|-------------2-------------------------------------------|
E|-5/---5---4----------------------------------------------|


G|---------------------------------------------------------------------| (x2)
D|---------------------------------------------------------------------|
A|---------------------------------------------------------------------|
E|-2-2-2-2-2-2-2-2-2-2-2-2-2-2-2-2-2-2-2-2-2-2-2-2-2-2-2-2-2-2-2-2-2-2-|

Repeat Pre-Chorus:
Repeat Chorus:

G|---------------------------------------------------------------------------| (x2)
D|---------------------------------------------------------------------------|
A|---------------------------------------------------------------------------|
E|-5---5---5---5---5---5---5---5---5---5---5---5---5---5---5---5---5---5---5-|

G|--------------------------------| (x2)
D|--------------------------------|
A|---------------2-2--------------|
E|-5--5-5-4--4-4-----4-2----------|

G|---------------------------------------------------------| (x2)
D|---------------------------------------------------------|
A|-----------------------------------------------2-2-------|
E|-2-2-2-2-2-2-2-2-2-2-2-2-2-2-2-2-5--5-5-4--4-4-----4-2---|

Repeat Chorus:

G|---------------------------------------------------------| (x2)
D|---------------------------------------------------------|
A|-----------------------------------------------2-2-------|
E|-2-2-2-2-2-2-2-2-2-2-2-2-2-2-2-2-5--5-5-4--4-4-----4-2---|


************************************

| / Slide up
| x Dead note

************************************
ⓘ Bass guitar tab for 'Wake Up' by Circa Waves, an indie rock band formed in 2013 from Liverpool, England, UK. Circa Waves is known for their excitable rock/pop music.

Almost there ...

Sign in to get your own page with links to favourite songs and more. You are just one click away...

Login with Facebook Login with Google