Log in

One click and you are in

Login with Facebook Login with Google

Why sign up and log in

Guitar Tabs Explorer
Circa Waves bass tabs for T-shirt weather

Bass tabs

These are just root notes


Verse 1:

G|---------------------------------------------------------------------------|
D|---------------------------------------------------------------------------|
A|------------------------------------4-4-4-4-4-4-4-4--7-7-7-7-7-7-7-7-------|
E|---7-7-7-7-7-7-7-7--4-4-4-4-4-4-4-4----------------------------------------|(x3)

G|---------------------------------------------------------------------------|
D|---------------------------------------------------------------------------|
A|------------------------------------5-5-5-5-5-5-5-5-5-5-5-5-5-5-5-5--------|
E|---7-7-7-7-7-7-7-7--4-4-4-4-4-4-4-4----------------------------------------|



Chorus:

G|--------------------------------------------------|
D|--------------------------------------------------|
A|-7-7-7-7-7-7-7-7----------------------------------|
E|-----------------7-7-7-7-7-7-7-7--4-4-4-4-4-4-4-4-|(x3)


Verse 2:

G|---------------------------------------------------------------------------|
D|---------------------------------------------------------------------------|
A|------------------------------------4-4-4-4-4-4-4-4--7-7-7-7-7-7-7-7-------|
E|---7-7-7-7-7-7-7-7--4-4-4-4-4-4-4-4----------------------------------------|(x3)

G|---------------------------------------------------------------------------|
D|---------------------------------------------------------------------------|
A|------------------------------------5-5-5-5-5-5-5-5-7-7-7-7-7-7-7-7--------|
E|---7-7-7-7-7-7-7-7--4-4-4-4-4-4-4-4----------------------------------------|



Chorus:

G|--------------------------------------------------|
D|--------------------------------------------------|
A|-7-7-7-7-7-7-7-7----------------------------------|
E|-----------------7-7-7-7-7-7-7-7--4-4-4-4-4-4-4-4-|(x3)


Outro:

G|---------------------------------------------------------------------------|
D|---------------------------------------------------------------------------|
A|---------------------------------------------------------------------------|
E|---------------------------------------------------------------------------|

G|---------------------------------------------------------------------------|
D|---------------------------------------------------------------------------|
A|---------------------------------------------------------------------------|
E|---------------------------------------------------------------------------|


************************************

| x  Dead note
| g  Grace note
| (n) Ghost note
| h  Hammer-on
| p  Pull-off
| r  Release
| >  Accented note
| t  Tapping
| b  Bend
| br Bend release
| pb Pre-bend
| pbr Pre-bend release
| /  Slide up
| \  Slide down
| ~  Vibrato
| s  Slap
| P  Pop
| PM Palm mute
| TR Trill
| N  Tremolo
ⓘ Bass guitar tab for 'T-shirt Weather' by Circa Waves, an indie rock band formed in 2013 from Liverpool, England, UK. Circa Waves is known for their excitable rock/pop music.

Almost there ...

Sign in to get your own page with links to favourite songs and more. You are just one click away...

Login with Facebook Login with Google