Log in

One click and you are in

Login with Facebook Login with Google

Why sign up and log in

Guitar Tabs Explorer
Circa Waves bass tabs for Sad happy

Bass tabs

Tuning: Standard (E A D G)


Intro:

G|---------------------------------------------------------------------------|
D|---------------------------------------------------------------------------|
A|-7-7--7-7-7--7-7-9-10-9-7--2-2--2-2-2--2-2-4-5-4-2--0-0--0-0-0--0-0-2-4-2-0|
E|---------------------------------------------------------------------------|

G|---------------------------------------------------------------------------|
D|-5-5--5-5-5--5-5-7-5-4-2---------------------------------------------------|
A|---------------------------------------------------------------------------|
E|---------------------------------------------------------------------------|

Verse 1:

G|---------------------------------------------------------------------------|
D|---------------------------------------------------------------------------|
A|-7-7--7-7-7--7-7-9-10-9----2-2--2-2-2--2-2-4-5-4----0-0--0-0-0--0-0-2-4-2--|
E|---------------------------------------------------------------------------|

G|---------------------------------------------------------------------------|
D|/5-5--5-5-5--5-5-7-7-4-4---------------------------------------------------|
A|---------------------------------------------------------------------------|
E|---------------------------------------------------------------------------|

G|---------------------------------------------------------------------------|
D|---------------------------------------------------------------------------|
A|-7-7--7-7-7--7-7-9-10-9----2-2--2-2-2--2-2-4-5-4----0-0--0-0-0--0-0-2-4-2--|
E|---------------------------------------------------------------------------|

G|---------------------------------------------------------------------------|
D|/5-5--5-5-5--5-5-7-7-4-4---------------------------------------------------|
A|---------------------------------------------------------------------------|
E|---------------------------------------------------------------------------|

Pre-Chorus:

G|---------------------------------------------------------------------------|
D|-7~-------9-\5------------------------7~-------9---------------------------|
A|---------------------------------------------------------------------------|
E|------------------------------------------------\3333333333333333----------|


Chorus:

G|---------------------------------------------------------------------------|
D|---------------------------------------------------------------------------|
A|-7-7--7-7-7--7-7-7--7-7-7-9-2-2--2-2-2--2-2-2--2-2-2-2--0-0--0-0-0--0-0-0--|
E|---------------------------------------------------------------------------|

G|---------------------------------------------------------------------------|
D|----------5-5--5-5-5--5-5-5--5-5-5-4---------------------------------------|
A|-0-0-0-0-------------------------------------------------------------------|
E|---------------------------------------------------------------------------|

G|---------------------------------------------------------------------------|
D|---------------------------------------------------------------------------|
A|-7-7--7-7-7--7-7-7--7-7-7-9-2-2--2-2-2--2-2-2--2-2-2-2--0-0--0-0-0--0-0-0--|
E|---------------------------------------------------------------------------|

G|---------------------------------------------------------------------------|
D|----------5-5--5-5-5--5-5-5--5-5-5-4---------------------------------------|
A|-0-0-0-0-------------------------------------------------------------------|
E|---------------------------------------------------------------------------|


Verse 2:

G|---------------------------------------------------------------------------|
D|---------------------------------------------------------------------------|
A|-7-7--7-7-7--7-7-9-10-9----2-2--2-2-2--2-2-4-5-4----0-0--0-0-0--0-0-2-4-2--|
E|---------------------------------------------------------------------------|

G|---------------------------------------------------------------------------|
D|/5-5--5-5-5--5-5-7-7-4-4---------------------------------------------------|
A|---------------------------------------------------------------------------|
E|---------------------------------------------------------------------------|

G|---------------------------------------------------------------------------|
D|---------------------------------------------------------------------------|
A|-7-7--7-7-7--7-7-9-10-9----2-2--2-2-2--2-2-4-5-4----0-0--0-0-0--0-0-2-4-2--|
E|---------------------------------------------------------------------------|

G|---------------------------------------------------------------------------|
D|/5-5--5-5-5--5-5-7-7-4-4---------------------------------------------------|
A|---------------------------------------------------------------------------|
E|---------------------------------------------------------------------------|


Pre-Chorus:

G|---------------------------------------------------------------------------|
D|-7~-------9-\5------------------------7~-------9---------------------------|
A|---------------------------------------------------------------------------|
E|------------------------------------------------\3333333333333333----------|


Chorus/Outro:

G|---------------------------------------------------------------------------|
D|---------------------------------------------------------------------------|
A|-7-7--7-7-7--7-7-7--7-7-7-9-2-2--2-2-2--2-2-2--2-2-2-2--0-0--0-0-0--0-0-0--|
E|---------------------------------------------------------------------------|

G|---------------------------------------------------------------------------|
D|----------5-5--5-5-5--5-5-5--5-5-5-4---------------------------------------|
A|-0-0-0-0-------------------------------------------------------------------|
E|---------------------------------------------------------------------------|

G|---------------------------------------------------------------------------|
D|---------------------------------------------------------------------------|
A|-7-7--7-7-7--7-7-7--7-7-7-9-2-2--2-2-2--2-2-2--2-2-2-2--0-0--0-0-0--0-0-0--|
E|---------------------------------------------------------------------------|

G|---------------------------------------------------------------------------|
D|----------5-5--5-5-5--5-5-5--5-5-5-4---------------------------------------|
A|-0-0-0-0-------------------------------------------------------------------|
E|---------------------------------------------------------------------------|


************************************


| /   Slide up
| \   Slide down
| ~   Vibrato


************************************

Almost there ...

Sign in to get your own page with links to favourite songs and more. You are just one click away...

Login with Facebook Login with Google