Log in

One click and you are in

Login with Facebook Login with Google

Why sign up and log in

Guitar Tabs Explorer
Circa Waves bass tabs for Lost it

Bass tabs

Tabbed by Jonathan Duong


[Intro]
G|---------------------------------------------------------------------------------|
D|---------------------------------------------------------------------------------|
A|-----------------5-5-5-5--6-6-6-6----------------------5-5-5-5--6-6-6-6----------|
E|-6-6-6-6-6-6-6-6-----------------------6-6-6-6-6-6-6-6---------------------------|


[Verse 1]
G|---------------------------------------------------------------------------------|
D|---------------------------------------------------------------------------------|
A|-----5----5-8-------5----5-8-------5----5-8-------5---5--------------------------|
E|-6-6---6--------6-6---6--------6-6---6--------6-6---6----------------------------|

G|---------------------------------------------------------------------------------|
D|-----5----5-8-------5----5-8-----------------------------------------------------|
A|-6-6---6--------6-6---6------------5------8-------5------------------------------|
E|-------------------------------6-6---6--6-----6-6---6--6-------------------------|


[Pre-Chorus]
G|---------------------------------------------------------------------------------|
D|---------------------------------------------------------------------------------|
A|-6-6-6-6-6-6-6-6-6-6-6-6-6-6-6-6--8-8-8-8-8-8-8-8-8-8-8-8-8-8-8-8----------------|
E|---------------------------------------------------------------------------------|


[Chorus]
G|---------------------------------------------------------------------------------|
D|---------------------------------------------------------------------------------|
A|----------------------5----------------------------------------------------------|
E|-6-6-6-6-6-6-6-6--6-6---6-6--6-6-6-6-6-6-6-6--8--10------------------------------|

G|---------------------------------------------------------------------------------|
D|-----5------------5------------3-------------------------------------------------|
A|-6-6---6--6---6-6---6--6---5-5---5--5--6-----------------------------------------|
E|---------------------------------------------------------------------------------|

G|---------------------------------------------------------------------------------|
D|---------------------------------------------------------------------------------|
A|---------------------------------------------------------------------------------|
E|-6-6-6-6-6-6-6-6-6-6-6-6-6-6-6-6-6-6-6-6-6-6-6-6--8--10--------------------------|

G|---------------------------------------------------------------------------------|
D|-----5------------5------------7-------------------------------------------------|
A|-6-6---6--6---6-6---6--6---8-8----8--8--8----------------------------------------|
E|---------------------------------------------------------------------------------|


[Instrumental]
G|---------------------------------------------------------------------------------|
D|---------------------------------------------------------------------------------|
A|-----------------5-5-5-5--6-6-6-6-------------------5-5-5-5--6-6-6-6-------------|
E|-6-6-6-6-6-6-6-6--------------------6-6-6-6-6-6-6-6------------------------------|


[Verse 2]
G|---------------------------------------------------------------------------------|
D|---------------------------------------------------------------------------------|
A|-----5----5-8-------5----5-8-------5----5-8-------5----5-------------------------|
E|-6-6---6--------6-6---6--------6-6---6--------6-6---6----------------------------|

G|---------------------------------------------------------------------------------|
D|-----5----5-8-------5----5-8-----------------------------------------------------|
A|-6-6---6--------6-6---6------------5----5-8-------5------------------------------|
E|-------------------------------6-6---6--------6-6---6--6-6-6---------------------|


[Pre-Chorus]
G|---------------------------------------------------------------------------------|
D|---------------------------------------------------------------------------------|
A|-6-6-6-6-6-6-6-6-6-6-6-6-6-6-6-6--8-8-8-8-8-8-8-8-8-8-8-8-8-8-8-8----------------| X2
E|---------------------------------------------------------------------------------|


[Chorus]
G|---------------------------------------------------------------------------------|
D|---------------------------------------------------------------------------------|
A|----------------------5----------------------------------------------------------|
E|-6-6-6-6-6-6-6-6--6-6---6-6--6-6-6-6-6-6-6-6--8--10------------------------------|

G|---------------------------------------------------------------------------------|
D|-----5------------5------------7-------------------------------------------------|
A|-6-6---6--6---6-6---6--6---8-8----8--8--8----------------------------------------|
E|---------------------------------------------------------------------------------|


[Bridge]
G|---------------------------------------------------------------------------------|
D|---------------------------------------------------------------------------------|
A|---------------------------------------------------------------------------------|
E|-6-6-6-6-6-6-6-6-6-6-6-6-6-6-6-6-8-8-8-8-8-8-8-8-8-8-8-8-8-8-8-8-----------------|

G|---------------------------------------------------------------------------------|
D|---------------------------------------------------------------------------------|
A|---------------------------------------------------------------------------------|
E|-10-10-10-10-10-10-10-10-10-10-10-10-10-10-10-10---------------------------------|

G|---------------------------------------------------------------------------------|
D|---------------------------------------------------------------------------------|
A|---------------------------------------------------------------------------------|
E|-11-11-11-11-11-11-11-11-11-11-11-11-11-11-11------------------------------------|

G|---------------------------------------------------------------------------------|
D|---------------------------------------------------------------------------------|
A|---------------------------------------------------------------------------------|
E|-6--6--6--6--6--6--6--6--6--6--6--6--8--8--10--10--11--11--11--11-11--11--11--11-|

G|---------------------------------------------------------------------------------|
D|---------------------------------------------------------------------------------|
A|---------------------------------------------------------------------------------|
E|-10--10--10--10-11---------------------------------------------------------------|


[Chorus]
G|---------------------------------------------------------------------------------|
D|---------------------------------------------------------------------------------|
A|---------------------------------------------------------------------------------|
E|-6-6-6-6-6-6-6-6-6-6-6-6-6-6-6-6-6-6-6-6-6-6-6-6--8--10--------------------------|

G|---------------------------------------------------------------------------------|
D|-----5------------5------------3-------------------------------------------------|
A|-6-6---6--6---6-6---6--6---5-5---5--5--6-----------------------------------------|
E|---------------------------------------------------------------------------------|

G|---------------------------------------------------------------------------------|
D|---------------------------------------------------------------------------------|
A|---------------------------------------------------------------------------------|
E|-6-6-6-6-6-6-6-6-6-6-6-6-6-6-6-6-6-6-6-6-6-6-6-6-8-8-8-8-10-10-10-10-------------|

G|---------------------------------------------------------------------------------|
D|-----5------------5------------7-------------------------------------------------|
A|-6-6---6--6---6-6---6--6---8-8----8--8--8----------------------------------------|
ⓘ Bass guitar tab for 'Lost It' by Circa Waves, an indie rock band formed in 2013 from Liverpool, England, UK. Circa Waves is known for their excitable rock/pop music.

Almost there ...

Sign in to get your own page with links to favourite songs and more. You are just one click away...

Login with Facebook Login with Google