Log in

One click and you are in

Login with Facebook Login with Google

Why sign up and log in

Guitar Tabs Explorer
Cinnamons guitar tabs for Summertime

Guitar tabs

Tuning: Standard (E A D G B E)


Intro:

e|---------------------------------------------------------------------------|
B|-10/13--11------(13)--(11)----------------------------------~8-------------|
G|----------12--------------(12)-------10-10--~8--10--~8--10-----------------|
D|--------------------------------13-----------------------------------------|
A|---------------------------------------------------------------------------|
E|---------------------------------------------------------------------------|

e|---------------------------------------------------------------------------|
B|-10/13--11------(13)--(11)--------------------------8----------------------|
G|----------12--------------(12)-------10-10--~8--10-----10--~8--------------|
D|--------------------------------13-----------------------------------------|
A|---------------------------------------------------------------------------|
E|---------------------------------------------------------------------------|


************************************

| /   Slide up
| ~   Vibrato

************************************
cinnamons × evening cinemaの「summertime」歌詞:

The song i used as reference:  https://www.youtube.com/watch v=mshYP5KgzOY


君の虜になってしまえばきっと

この夏は充実するのもっと

もう戻れなくたって忘れないで

何年経っても言えない

後悔したって構わない

でも言葉はここまで出てるの

ねぇサマータイム

海岸通りを歩きたい

ドライブだってしてみたい

ただ視線を合わせてほしいの

ねぇサマータイム


夜明けまで海辺走って

潮騒に包まれたいね

彼女の仕草が甘いね


君の虜になってしまえばきっと

この夏は充実するのもっと

噂のドリーミンガール忘れないで

でも気持ちを伝えてしまえばいつか

この夢は覚めてしまうだろうな

青い影が揺れる街角


占いなんて信じない

運命なんてあるわけない

ただ本当のことを知りたいの

ねぇサマータイム

近づく距離にも気づかない

胸の高鳴りごまかせない

でも昔と変わらずニブいの

ねぇサマータイム


思い出は色褪せたって

惚れた腫れたの仲がいいね

彼女の笑顔が憎いね


君の虜になってしまえばきっと

この夏は充実するのもっと

噂のドリーミンガール忘れないで

でも気持ちを伝えてしまえばいつか

この夢は覚めてしまうだろうな

青い影が揺れる


君の虜になってしまえばきっと

この夏は充実するのもっと

噂のドリーミンガール忘れないで

でも気持ちを伝えてしまえばいつか

この夢は覚めてしまうだろうな

青い影が揺れる街角

Other versions of Summertime

SummertimeChords

↓ Add and view comments below ↓

What do you think about this song and these tabs?

Add your comments, questions, rant or a thumbs up below.

Almost there ...

Sign in to get your own page with links to favourite songs and more. You are just one click away...

Login with Facebook Login with Google