Log in

One click and you are in

Login with Facebook Login with Google

Why sign up and log in

Guitar Tabs Explorer
Ciara bass tabs for Body party

Bass tabs

-------------------------------------------------------------------------------
                             BODY PARTY - CIARA
-------------------------------------------------------------------------------
Tabbed by:lucbuzz
E-mail: lucbuzz@gmail.com

Tuning: E A D G

This song is pretty much all a variation of the same chord progression
[Intro]

This is that synth part tabbed out for bass.

G|------------------------------------|
D|-----------------------------5-7----|
A|-5-5-4-4-7-7-----5-5-4-4-7-7--------|
E|-------------3-5--------------------| x1

G|---------------|
D|---------------|
A|-5--4-------0--|
E|-------0--3----| x3


[Verse]

["My body is your party..."]
G|---------------|
D|---------------|
A|-5--4-------0--|
E|-------0--3----|x2


[Bridge]

["... I can do it slow now"]
G|---------------|
D|---------------|
A|-5--4-------0--|
E|-------0--3----|x2


[Chorus/Outro]

G|------------------------------------|
D|-----------------------------5-7----|
A|-5-5-4-4-7-7-----5-5-4-4-7-7--------|
E|-------------3-5--------------------| x2


[Bridge 2]

["Boy you should know that"]
G|-------------------|
D|---------5--7------|
A|-5--4--------------|

↓ Add and view comments below ↓

What do you think about this song and these tabs?

Add your comments, questions, rant or a thumbs up below.

Almost there ...

Sign in to get your own page with links to favourite songs and more. You are just one click away...

Login with Facebook Login with Google