Search tabs and chords

Browse bands and artists

A B C D E F G H I J K L M N O P Q R S T U V W X Y Z #

Log in

[ Register here | Forgot password ]

Guitar Tabs Explorer
Print

Bass tabs :

Drink In My Hand bass tab by Eric Church

Intro
G|--------|-/5-2-0-0--|
D|--------|-------2-2-|
A|--------|-----------|
E|--------|-----------|

Verse
G|----------------|-----------------|-----------------|-----------------|
D|-----2----------|-----------------|-----------------|-----------------|
A|-3-3--------3---|-------0-3-3-----|-3-3-------------|-------0-3-3-----|
E|------3-5-5---5-|-1-1-3-------3-5-|-----0-3-5-5-5-3-|-1-1-3-------3-5-|

Chorus
G|-------------------|---------------------|-----------------|-----|
D|----------------55-|-----------------2-3-|-5-5-5-5-5-5-3-2-|-----|
A|-------------------|---------0-3-3-3-----|-----------------|-3-0-|
E|-3-3-3-3-3-3-3-3---|-0h1-1-3-------------|-----------------|-----|

Verse
G|----------------|-----------------|-----------------|-----------------|
D|-----2----------|-----------------|-----------------|-----------------|
A|-3-3--------3---|-------0-3-3-----|-3-3-------------|-------0-3-3-----|
E|------3-5-5---5-|-1-1-3-------3-5-|-----0-3-5-5-5-3-|-1-1-3-------3-5-|

Guitar Solo
G|-------------------------|---------------------|
D|---------------------2-3-|-----------2-3-2-----|
A|-3-3-3-0-3-0-3-0-3-0-----|-0-3-0-3-0-------3-0-|
E|-------------------------|---------------------|

Verse
G|----------------|-----------------|-----------------|-----------------|
D|-----2----------|-----------------|-----------------|-----------------|
A|-3-3--------3---|-------0-3-3-----|-3-3-------------|-------0-3-3-----|
E|------3-5-5---5-|-1-1-3-------3-5-|-----0-3-5-5-5-3-|-1-1-3-------3-5-|

Chorus
G|-------------------|---------------------|-----------------|-----|
D|----------------55-|-----------------2-3-|-5-5-5-5-5-5-3-2-|-----|
A|-------------------|---------0-3-3-3-----|-----------------|-3-0-|
E|-3-3-3-3-3-3-3-3---|-0h1-1-3-------------|-----------------|-----|

Guitar Solo 2
G|-------------------------|---------------------|-------------------------|-----|
D|---------------------2-3-|---------------------|---------------------2-3-|-----|
A|-3-3-3-0-3-0-3-0-3-0-----|---------------------|-3-3-3-0-3-0-3-0-3-0-----|-3-0-|
E|-------------------------|-0-1-1-0-1-0-1-1-1-1-|-------------------------|-----|

Break:
G|------------|------------------|-----------------|----------|----------|
D|------------|-7-5-3-3p2--------|----2------------|----------|----------|
A|------------|-----------3----3-|-3-0-0-3-----0h3-|----------|-------3--|
E|-8-----\----|------------3h5---|---------3h5-----|-5\1------|-1-1h3----|

Chorus
G|-------------------|---------------------|-----------------|-----|
D|----------------55-|-----------------2-3-|-5-5-5-5-5-5-3-2-|-----|
A|-------------------|---------0-3-3-3-----|-----------------|-3-0-|
E|-3-3-3-3-3-3-3-3---|-0h1-1-3-------------|-----------------|-----|

Verse
G|----------------|-----------------|-----------------|-----------------|
D|-----2----------|-----------------|-----------------|-----------------|
A|-3-3--------3---|-------0-3-3-----|-3-3-------------|-------0-3-3-----|
E|------3-5-5---5-|-1-1-3-------3-5-|-----0-3-5-5-5-3-|-1-1-3-------3-5-|

Break 2:
G|----------|----------|------------|
D|----------|----------|------------|
A|-3--------|-3-3-3----|----------3-|
E|----------|----------|-\1-1-1h3---|

Verse with Break:
G|----------------|-----------------|------------|------------|
D|-----2----------|-----------------|------------|------------|
A|-3-3--------3---|-------0-3-3-----|-3-REST-----|----------3-|
E|------3-5-5---5-|-1-1-3-------3-5-|------------|-\1-1-1h3---|

Chorus
G|-------------------|---------------------|-----------------|-----|
D|----------------55-|-----------------2-3-|-5-5-5-5-5-5-3-2-|-----|
A|-------------------|---------0-3-3-3-----|-----------------|-3-0-|
E|-3-3-3-3-3-3-3-3---|-0h1-1-3-------------|-----------------|-----|

Verse
G|----------------|-----------------|-----------------|-----------------|
D|-----2----------|-----------------|-----------------|-----------------|
A|-3-3--------3---|-------0-3-3-----|-3-3-------------|-------0-3---0---|
E|------3-5-5---5-|-1-1-3-------3-5-|-----0-3-5-5-5-3-|-1-1-3-----3---3-|

G|----------------|-----------------|-----------------|-----------------|
D|-----2----------|-----------------|-----------------|-----------------|
A|-3-3--------3---|-------0-3-3-----|-3-3-------------|-------0-3-3-----|
E|------3-5-5---5-|-1-1-3-------3-5-|-----0-3-5-5-5-3-|-1-1-3-------3-5-|

G|----------------|-----------|
D|-----2----------|-----------|
A|-3-3--------3---|---------3-|
E|------3-5-5---5-|-1-1-1h3---|


************************************

| h   Hammer-on
| p   Pull-off
| /   Slide up
| \   Slide down

Comments

Eric Church bass tabs for Drink in my hand