Guitar Tabs Explorer
Edward Chun guitar tabs for Give my love

Give My Love tab


Be the first to rate

Give My Love tab by Edward Chun

Intro

Print

When I look in your eyes I can see that you
e|-3-3-3-3-3-3-3-3--2---5----------------------------------------------------|
B|-3--------------------3----------------------------------------------------|
G|---------------------------------------------------------------------------|
D|---------------------------------------------------------------------------|
A|---------------------------------------------------------------------------|
E|-3-------------------------------------------------------------------------|
     Want to be with me but you’re so scared
e|-3-3--3--3-3--3--3--2------------------------------------------------------|
B|-3----------------------3--------------------------------------------------|
G|---------------------------------------------------------------------------|
D|---------------------------------------------------------------------------|
A|---------------------------------------------------------------------------|
E|-3-------------------------------------------------------------------------|

     And I don’t know what to say or do
e|-3-3-3-3-3-3-3-2---5-------------------------------------------------------|
B|-3----------------3--------------------------------------------------------|
G|---------------------------------------------------------------------------|
D|---------------------------------------------------------------------------|
A|---------------------------------------------------------------------------|
E|-3-------------------------------------------------------------------------|
     But the tears keep falling from your eyes
e|-3-3-3--3-3-3-2-0----------------------------------------------------------|
B|-3-----------------3-------------------------------------------------------|
G|---------------------------------------------------------------------------|
D|---------------------------------------------------------------------------|
A|---------------------------------------------------------------------------|
E|-3-------------------------------------------------------------------------|

     And I know that
e|---0--3--2-----------------------------------------------------------------|
B|-3-------------------------------------------------------------------------|
G|---------------------------------------------------------------------------|
D|---------------------------------------------------------------------------|
A|---------------------------------------------------------------------------|
E|---------------------------------------------------------------------------|

(keep on repeat the rhythm almost the same for the whole song)

Comment this song and these intro

Do you have corrections, comments on the intro, thoughts about the song or a message to the author? Write them below.