Guitar Tabs Explorer
Christie bass tabs for Yellow river (Ver. 2)

Yellow River bass tab


Be the first to rate


Ayreon77Author: Ayreon77

Yellow River bass tab by Christie (Ver. 2)

Bass tabs

Print
  • Tuning: Standard tuning
  • Difficulty: Novice
--------------------------------------------------------------------------
                            Artist - Christie
                           *******************
                           Song - Yellow River
                          *********************
                         Album - Christie (1970)
                        *************************
                           Tabbed By - Ayreon77
                          **********************
                 https://www.youtube.com/watch?v=zGoHQ7c5I2I
                *********************************************
--------------------------------------------------------------------------
Tuning = Standard



INTRO
******
G|--------|-------------------------------|
D|--------|-------------------------------|
A|-6-6--6-|-----6--6--6-----6-6--6------5-|
E|--------|-6-8---------6-8---------6-8---|


--------------------------------
00:06
VERSE 1
********
G|------------|------------|-------------------------|-------------------------|
D|------------|-5-----5----|----------3-4-5-----5----|----------5-4-3-----3----|
A|-6-----6----|----5-----5-|-3-----3---------5-----5-|-3-----3---------3-----3-|
E|----6-----6-|------------|----3--------------------|----3--------------------|


G|-------------------------|
D|-------------------------|
A|-----------------------s-|
E|-6--6--4--4--3--3--1--1\-|


--------------------------------
00:22
VERSE 2
********
G|------------|------------|-------------------------|-------------------------s-|
D|------------|-5-----5----|----------3-4-5-----5----|----------5-4-3-----3-3-3\-|
A|-6-----6----|----5-----5-|-3-----3---------5-----5-|-3-----3---------3---------|
E|----6-----6-|------------|----3--------------------|----3----------------------|


G|----------------------|
D|-8-8-8--6-6--5-5--3-3-|
A|----------------------|
E|----------------------|


--------------------------------
00:37
CHORUS
*******                                         s
G|------------|------------|--------------|---10\12-10--------s-|
D|------------|------------|-4-5-----5----|-8----------12-10-8\-|
A|-6-----6----|-6-----6----|------5-----5-|---------------------|
E|----6-----6-|----6-----6-|--------------|---------------------|


G|--------------|------------|--------------|------------|
D|--------------|------------|-4-5-----5----|-8-----8----|
A|-6-----6----5-|-6-----6----|------5-----5-|----8-----8-|
E|----6-----6---|----6-----6-|--------------|------------|


--------------------------------
00:53
BRIDGE
*******
G|------------|------------|------------|-------------------------|------------|
D|------------|------------|-3-----3----|-------------------------|------------|
A|-3-----3----|-1-----1----|----3-----3-|-1-----1--1-2-3-----3----|-3----------|
E|----3-----3-|----1-----1-|------------|----1------------3-----3-|----3--4--6-|


--------------------------------
01:05
VERSE 3
********
G|------------|------------|-------------------------|-------------------------|
D|------------|-5-----5----|----------3-4-5-----5----|----------5-4-3-----3----|
A|-6-----6----|----5-----5-|-3-----3---------5-----5-|-3-----3---------3-----3-|
E|----6-----6-|------------|----3--------------------|----3--------------------|


G|---------------------------|
D|---------------------------|
A|-------------------------s-|
E|-6-6-6--4-4-4--3--3--1--1\-|


--------------------------------
01:20
VERSE 4
********
G|------------|------------|-------------------------|-------------------------s-|
D|------------|-5-----5----|----------3-4-5-----5----|----------5-4-3-----3---3\-|
A|-6-----6----|----5-----5-|-3-----3---------5-----5-|-3-----3---------3---------|
E|----6-----6-|------------|----3--------------------|----3----------------------|


G|--------------------|
D|-8-8--6-6--5-5--3-3-|
A|--------------------|
E|--------------------|


--------------------------------
01:36
CHORUS
*******                                         s
G|------------|------------|--------------|---10\12-10--------s-|
D|------------|------------|-4-5-----5----|-8----------12-10-8\-|
A|-6-----6----|-6-----6----|------5-----5-|---------------------|
E|----6-----6-|----6-----6-|--------------|---------------------|


G|--------------|------------|--------------|------------|
D|--------------|------------|-4-5-----5----|-8-----8----|
A|-6-----6----5-|-6-----6----|------5-----5-|----8-----8-|
E|----6-----6---|----6-----6-|--------------|------------|


--------------------------------
00:52
BRIDGE
*******
G|------------|------------|------------|-------------------------|------------|
D|------------|------------|-3-----3----|-------------------------|------------|
A|-3-----3----|-1-----1----|----3-----3-|-1-----1--1-2-3-----3----|-3----------|
E|----3-----3-|----1-----1-|------------|----1------------3-----3-|----3--4--6-|


--------------------------------
02:03
CHORUS
*******                                         s
G|------------|------------|--------------|---10\12-10--------s-|
D|------------|------------|-4-5-----5----|-8----------12-10-8\-|
A|-6-----6----|-6-----6----|------5-----5-|---------------------|
E|----6-----6-|----6-----6-|--------------|---------------------|

                                                  s
G|--------------|------------|--------------|---10\12-10--------s-|
D|--------------|------------|-4-5-----5----|-8----------12-10-8\-|
A|-6-----6----5-|-6-----6----|------5-----5-|---------------------|
E|----6-----6---|----6-----6-|--------------|---------------------|


--------------------------------
02:19
BREAK
******
G|-------|-----------|-----------|-----------|
D|-------|-----------|-----------|-----------|
A|-6-6-6-|-----6-6-6-|-----6-6-6-|-----6-6-6-|
E|-------|-6-8-------|-6-8-------|-6-8-------|



ENJOY........

Other versions of Yellow River

Yellow riverBass tabs

Comment this song and these bass tabs

Do you have corrections, comments on the bass tabs, thoughts about the song or a message to the author? Write them below.