Search tabs and chords

Search for song, artist or band

Log in

One click and you are in

Login with Facebook Login with Google

Why sign up and log in

Guitar Tabs Explorer
Christie bass tabs for San bernadino

Bass tabs

  • Tuning: Standard tuning
  • Difficulty: Intermediate
--------------------------------------------------------------------------
                          Artist - Christie
                         *******************
                        Song - San Bernadino
                       **********************
                       Album - Christie (1970)
                      *************************
                        Tabbed By - Ayreon77
                       **********************
--------------------------------------------------------------------------
Tuning = Standard
INTRO
******
G|------------------------|------------------------|---------------------------|
D|------------------------|------------------------|---------------------------|
A|-6~~~~-6~~~~-6-6--6-----|-6-----6-----6-----6----|-6-----6-----6-----6---3-5-|
E|--------------------8-6-|----6-----6-----6-----6-|----6-----6-----6----6-----|


---------------------
00:15
VERSE 1
********
G|------------|------------|------------|------------|
D|-------5----|----5--5----|-------5----|-6-----8----|
A|-6--------5-|-3--------5-|-6--------5-|----6-----8-|
E|----6-------|------------|----6-------|------------|


G|------------|------------|------------------------|
D|----5-----5-|-5-----5----|-8--8--6--6--5--5-------|
A|-3-----3----|----5-----5-|-------------------8--8-|
E|------------|------------|------------------------|

00:34
G|---------------------------|
D|---------------------------|
A|-6-----6-----6-----6---3-5-|
E|----6-----6-----6----6-----|

---------------------
00:39
VERSE 2
********
G|------------|------------|------------|------------|
D|-------5----|----5--5----|-------5----|-6-----8----|
A|-6--------5-|-3--------5-|-6--------5-|----6-----8-|
E|----6-------|------------|----6-------|------------|


G|------------|------------|------------------------|
D|----5-----5-|-5-----5----|-8--8--6--6--5--5-------|
A|-3-----3----|----5-----5-|-------------------8--8-|
E|------------|------------|------------------------|

00:59
G|-----------s---------|-----------s---------|
D|----------8\10-8---s-|----------8\10-8---s-|
A|-6-----6---------10\-|-6-----6---------10\-|
E|----6----------------|----6----------------|

G|-----------s---------|---------------|
D|----------8\10-8---s-|---------------|
A|-6-----6---------10\-|-6-----6---3-5-|
E|----6----------------|----6----6-----|


---------------------
01:09
CHORUS
*******
G|---------------|------------|---------------------------|
D|---------------|------------|---------------------------|
A|-6-----6-6-5-3-|----8-----8-|-6-----6-----6-----6-6-5-4-|
E|----6----------|-6-----6----|----6-----6-----6----------|


G|------------|-------------3---------|---------|---------|-------|
D|----5-----5-|-5-----5---s----s--3---|--s--3---|--s--3---|--s--3-|
A|-3-----3----|----5-----5\---3\5-----|-3\5-----|-3\5-----|-3\5---|
E|------------|---------------------4-|-------3-|-------2-|-------|


---------------------
01:28
VERSE 3
********
G|------------|------------|------------|------------|
D|-------5----|----5--5----|-------5----|-6-----8----|
A|-6--------5-|-3--------5-|-6--------5-|----6-----8-|
E|----6-------|------------|----6-------|------------|


G|------------|------------|------------------------|
D|----5-----5-|-5-----5----|-8--8--6--6--5--5-------|
A|-3-----3----|----5-----5-|-------------------8--8-|
E|------------|------------|------------------------|


01:47
G|---------------------------|
D|---------------------------|
A|-6-----6-----6-----6---3-5-|
E|----6-----6-----6----6-----|


---------------------
01:52
VERSE 4
********
G|------------|------------|------------|------------|
D|-------5----|----5--5----|-------5----|-6-----8----|
A|-6--------5-|-3--------5-|-6--------5-|----6-----8-|
E|----6-------|------------|----6-------|------------|


G|------------|------------|------------------------|
D|----5-----5-|-5-----5----|-8--8--6--6--5--5-------|
A|-3-----3----|----5-----5-|-------------------8--8-|
E|------------|------------|------------------------|

02:12
G|-----------s---------|-----------s---------|
D|----------8\10-8---s-|----------8\10-8---s-|
A|-6-----6---------10\-|-6-----6---------10\-|
E|----6----------------|----6----------------|

G|-----------s---------|---------------|
D|----------8\10-8---s-|---------------|
A|-6-----6---------10\-|-6-----6---3-5-|
E|----6----------------|----6----6-----|


---------------------
02:22
CHORUS
*******
G|---------------|------------|---------------------------|
D|---------------|------------|---------------------------|
A|-6-----6-6-5-3-|----8-----8-|-6-----6-----6-----6-6-5-4-|
E|----6----------|-6-----6----|----6-----6-----6----------|


G|------------|-------------3---------|---------|---------|------------|------|
D|----5-----5-|-5-----5---s----s--3---|--s--3---|--s--3---|--s--3------|------|
A|-3-----3----|----5-----5\---3\5-----|-3\5-----|-3\5-----|-3\5---6~~~-|-6~~~-|
E|------------|---------------------4-|-------3-|-------2-|------------|------|


---------------------
02:45
OUTRO
******
G|------------|------------------------|-----------------------s---------|
D|------------|------------------------|----------------------8\10-8---s-|
A|-6-6--6-----|-6-----6-----6-----6----|-6-----6-----6-----6---------10\-|
E|--------8-6-|----6-----6-----6-----6-|----6-----6-----6----------------|

          Fade Out.................
G|-----------------------s---------|
D|----------------------8\10-8---s-|
A|-6-----6-----6-----6---------10\-|
E|----6-----6-----6----------------|



ENJOY.........

Almost there ...

Sign in to get your own page with links to favourite songs and more. You are just one click away...

Login with Facebook Login with Google