Search tabs and chords

Search for song, artist or band

Log in

One click and you are in

Login with Facebook Login with Google

Why sign up and log in

Guitar Tabs Explorer
Christie bass tabs for San bernadino

Bass tabs

  • Tuning: Standard tuning
  • Difficulty: Intermediate
--------------------------------------------------------------------------
                          Artist - Christie
                         *******************
                        Song - San Bernadino
                       **********************
                       Album - Christie (1970)
                      *************************
                        Tabbed By - Ayreon77
                       **********************
--------------------------------------------------------------------------
Tuning = Standard
INTRO
******
G|-------------------------|-----------------------s----------|-----------------------------|
D|-------------------------|----------------------8\10-8------|-----------------------------|
A|-6~~~~-6~~~~-6-6-6-6-----|-6-----6------6-----6--------10-8-|-6-----6------6-----6--------|
E|---------------------8-6-|----6-----6-8----6----------------|----6-----6-8----6----6-8-10-|


---------------------
00:15
VERSE 1
********
G|------------|------------|------------|------------|
D|-------5----|-------5----|-------5----|-6-----8----|
A|-6--------5-|-3--------5-|-6--------5-|----6-----8-|
E|----6-------|----3-------|----6-------|------------|


G|------------|------------|------------------------|
D|------------|-5-----5----|-8--8--6--6--5--5-------|
A|-3-----3----|----5-----5-|-------------------8--8-|
E|----3-----3-|------------|------------------------|

00:34
G|-----------------------------|
D|-----------------------------|
A|-6-----6------6-----6--------|
E|----6-----6-8----6----6-8-10-|

---------------------
00:39
VERSE 2
********
G|------------|------------|------------|------------|
D|-------5----|-------5----|-------5----|-6-----8----|
A|-6--------5-|-3--------5-|-6--------5-|----6-----8-|
E|----6-------|----3-------|----6-------|------------|


G|------------|------------|------------------------|
D|------------|-5-----5----|-8--8--6--6--5--5-------|
A|-3-----3----|----5-----5-|-------------------8--8-|
E|----3-----3-|------------|------------------------|

00:59
G|-----------------------s----------|-----------------------------|
D|----------------------8\10-8------|-----------------------------|
A|-6-----6------6-----6--------10-8-|-6-----6------6-----6--------|
E|----6-----6-8----6----------------|----6-----6-8----6----6-8-10-|



---------------------
01:09
CHORUS
*******
G|------------|------------|-----------s----------|----------------|
D|------------|------------|----------8\10-8------|----------------|
A|-6-----6----|----1-----1-|-6-----6---------10-8-|-6-----6--6-5-4-|
E|----6-----6-|-1-----1----|----6-----------------|----6-----------|


G|------------|------------|-----------|----------|----------|----------|
D|------------|-5-----5----|------s--2-|-----s--3-|-----s--3-|-----s--3-|
A|-3-----3----|----5-----5-|-1-1-2\4---|----2\4---|----2\4---|----2\4---|
E|----3-----3-|------------|-----------|-4--------|-3--------|-2--------|


---------------------
01:28
VERSE 3
********
G|------------|------------|------------|------------|
D|-------5----|-------5----|-------5----|-6-----8----|
A|-6--------5-|-3--------5-|-6--------5-|----6-----8-|
E|----6-------|----3-------|----6-------|------------|


G|------------|------------|------------------------|
D|------------|-5-----5----|-8--8--6--6--5--5-------|
A|-3-----3----|----5-----5-|-------------------8--8-|
E|----3-----3-|------------|------------------------|


01:47
G|-----------------------------|
D|-----------------------------|
A|-6-----6------6-----6--------|
E|----6-----6-8----6----6-8-10-|


---------------------
01:52
VERSE 4
********
G|------------|------------|------------|------------|
D|-------5----|-------5----|-------5----|-6-----8----|
A|-6--------5-|-3--------5-|-6--------5-|----6-----8-|
E|----6-------|----3-------|----6-------|------------|


G|------------|------------|------------------------|
D|------------|-5-----5----|-8--8--6--6--5--5-------|
A|-3-----3----|----5-----5-|-------------------8--8-|
E|----3-----3-|------------|------------------------|

02:12
G|-----------------------s----------|-----------------------------|
D|----------------------8\10-8------|-----------------------------|
A|-6-----6------6-----6--------10-8-|-6-----6------6-----6--------|
E|----6-----6-8----6----------------|----6-----6-8----6----6-8-10-|


---------------------
02:22
CHORUS
*******
G|------------|------------|-----------s----------|----------------|
D|------------|------------|----------8\10-8------|----------------|
A|-6-----6----|----1-----1-|-6-----6---------10-8-|-6-----6--6-5-4-|
E|----6-----6-|-1-----1----|----6-----------------|----6-----------|


G|------------|------------|-----------|----------|----------|----------|
D|------------|-5-----5----|------s--2-|-----s--2-|-----s--2-|-----s--2-|
A|-3-----3----|----5-----5-|-1-1-2\4---|----2\4---|----2\4---|----2\4---|
E|----3-----3-|------------|-----------|-4--------|-3--------|-2--------|


---------------------
02:45
OUTRO
******
G|-------------------------|-----------------------s----------|-----------------------s----------|
D|-------------------------|----------------------8\10-8------|----------------------8\10-8------|
A|-6~~~~-6~~~~-6-6-6-6-----|-6-----6------6-----6--------10-8-|-6-----6------6-----6--------10-8-|
E|---------------------8-6-|----6-----6-8----6----------------|----6-----6-8----6----------------|


            Fade Out.................................................
G-----------------------s----------|-----------------------s----------|
D----------------------8\10-8------|----------------------8\10-8------|
A-6-----6------6-----6--------10-8-|-6-----6------6-----6--------10-8-|
E----6-----6-8----6----------------|----6-----6-8----6----------------|


ENJOY.........

Almost there ...

Sign in to get your own page with links to favourite songs and more. You are just one click away...

Login with Facebook Login with Google