Search tabs and chords

Search for song, artist or band

Log in

One click and you are in

Login with Facebook Login with Google

Why sign up and log in

Guitar Tabs Explorer
Christie bass tabs for Put your money down

Bass tabs

  • Tuning: Standard tuning
  • Difficulty: Intermediate
--------------------------------------------------------------------------
                          Artist - Christie
                         *******************
                      Song - Put Your Money Down
                     ****************************
                       Album - Christie (1970)
                      *************************
                        Tabbed By - Ayreon77
                       **********************
--------------------------------------------------------------------------
Tuning = Standard
INTRO
******
G|-----------2-0---2-0-----|-----------2-0---2-0-----|
D|---------2-----4-----4-2-|---------2-----4-----4-2-|
A|-0-0-3-4-----------------|-0-0-3-4-----------------|
E|-------------------------|-------------------------|


G|-----------------------------|-----------------------------|
D|-----7-----7-----7-----------|-----7-----7-----7-----------|
A|-0-0---0-0---0-0---0-4-5-6-7-|-0-0---0-0---0-0---0-4-5-6-7-|
E|-----------------------------|-----------------------------|


-----------------------
00:12
VERSE 1
********
G|-------------------------|-----------------9-9-----9-9-|
D|-----7-----7-----7-----7-|-----7-----7-----------------|
A|-0-0---0-0---0-0---0-0---|-0-0---0-0---7-7-----7-7-----|
E|-------------------------|-----------------------------|

G|-------------------------|-----9-9-----9-9-|-------------|
D|-----7-----7-----7-----7-|-----------------|-----7-----7-|
A|-0-0---0-0---0-0---0-0---|-7-7-----7-7-----|-0-0---0-0---|
E|-------------------------|-----------------|-------------|

00:23
G|-----------------|-----------------|-----------------|-----------------|
D|-----------------|-----------------|-0-0-------------|-0-0-------------|
A|-8-8-5-5-----5-5-|-8-8-5-5-----5-5-|-----2-2-0-0-2-2-|-----2-2-0-0-2-2-|
E|---------8-8-----|---------8-8-----|-----------------|-----------------|


G|-0-0-----------0--0-----------|-------------------------|
D|-----2-2-0-0-2------2-2-0-0-2-|-2-2--------2-2----------|
A|------------------------------|-----4--2-4-----4--2-2-4-|
E|------------------------------|-------------------------|


-----------------------
00:35
BREAK
******
G|-------------------|
D|---------------2-2-|
A|-----------2-3-----|
E|-0--0--2-3---------|


-----------------------
00:38
CHORUS
*******
G|------------------------------------|------------------------------------|
D|-----7-7------7-7------7-7------7-7-|--h--------h--------h--------h------|
A|-0-0------0-0------0-0------0-0-----|-3-5-5-5--3-5-5-5--3-5-5-5--3-5-5-5-|
E|------------------------------------|------------------------------------|


G|------------------------------------|------------------------------------|
D|-----7-7------7-7------7-7------7-7-|--h--------h--------h--------h------|
A|-0-0------0-0------0-0------0-0-----|-5-7-7-7--5-7-7-7--5-7-7-7--5-7-7-7-|
E|------------------------------------|------------------------------------|


G|------------------------------------|------------------------------------|
D|-----7-7------7-7------7-7------7-7-|--h--------h--------h--------h------|
A|-0-0------0-0------0-0------0-0-----|-3-5-5-5--3-5-5-5--3-5-5-5--3-5-5-5-|
E|------------------------------------|------------------------------------|

00:56
G|-----------------|-----9-9---------------------------------|
D|-----------------|-------------7-7-----7-5-----------------|
A|-0-0-3-5-7-7-5-3-|-7-7-----0-0-----0-0-----7-5-3-2-0-----0-|
E|-----------------|-----------------------------------0-3---|


-----------------------
01:01
BREAK
******
G|-----------2-0---2-0-----|-----------2-0---2-0-----|
D|---------2-----4-----4-2-|---------2-----4-----4-2-|
A|-0-0-3-4-----------------|-0-0-3-4-----------------|
E|-------------------------|-------------------------|


G|-----------------------------|-----------------------------|
D|-----7-----7-----7-----------|-----7-----7-----7-----------|
A|-0-0---0-0---0-0---0-4-5-6-7-|-0-0---0-0---0-0---0-4-5-6-7-|
E|-----------------------------|-----------------------------|


-----------------------
01:13
VERSE 2
********
G|-------------------------|-----------------9-9-----9-9-|
D|-----7-----7-----7-----7-|-----7-----7-----------------|
A|-0-0---0-0---0-0---0-0---|-0-0---0-0---7-7-----7-7-----|
E|-------------------------|-----------------------------|


G|-------------------------|-----9-9-----9-9-|-------------|
D|-----7-----7-----7-----7-|-----------------|-----7-----7-|
A|-0-0---0-0---0-0---0-0---|-7-7-----7-7-----|-0-0---0-0---|
E|-------------------------|-----------------|-------------|

01:25
G|-----------------|-----------------|-----------------|-----------------|
D|-----------------|-----------------|-0-0-------------|-0-0-------------|
A|-8-8-5-5-----5-5-|-8-8-5-5-----5-5-|-----2-2-0-0-2-2-|-----2-2-0-0-2-2-|
E|---------8-8-----|---------8-8-----|-----------------|-----------------|


G|-0-0-----------0--0-----------|-------------------------|
D|-----2-2-0-0-2------2-2-0-0-2-|-2-2--------2-2----------|
A|------------------------------|-----4--2-4-----4--2-2-4-|
E|------------------------------|-------------------------|


-----------------------
01:37
BREAK
******
G|-------------------|
D|---------------2-2-|
A|-----------2-3-----|
E|-0--0--2-3---------|


-----------------------
01:40
CHORUS
*******
G|------------------------------------|------------------------------------|
D|-----7-7------7-7------7-7------7-7-|--h--------h--------h--------h------|
A|-0-0------0-0------0-0------0-0-----|-3-5-5-5--3-5-5-5--3-5-5-5--3-5-5-5-|
E|------------------------------------|------------------------------------|


G|------------------------------------|------------------------------------|
D|-----7-7------7-7------7-7------7-7-|--h--------h--------h--------h------|
A|-0-0------0-0------0-0------0-0-----|-5-7-7-7--5-7-7-7--5-7-7-7--5-7-7-7-|
E|------------------------------------|------------------------------------|


G|------------------------------------|------------------------------------|
D|-----7-7------7-7------7-7------7-7-|--h--------h--------h--------h------|
A|-0-0------0-0------0-0------0-0-----|-3-5-5-5--3-5-5-5--3-5-5-5--3-5-5-5-|
E|------------------------------------|------------------------------------|

01:57
G|-----------------|-----9-9---------------------------------|
D|-----------------|-------------7-7-----7-5-----------------|
A|-0-0-3-5-7-7-5-3-|-7-7-----0-0-----0-0-----7-5-3-2-0-----0-|
E|-----------------|-----------------------------------0-3---|


-----------------------
02:03
CHORUS
*******
G|------------------------------------|------------------------------------|
D|-----7-7------7-7------7-7------7-7-|--h--------h--------h--------h------|
A|-0-0------0-0------0-0------0-0-----|-3-5-5-5--3-5-5-5--3-5-5-5--3-5-5-5-|
E|------------------------------------|------------------------------------|


G|------------------------------------|------------------------------------|
D|-----7-7------7-7------7-7------7-7-|--h--------h--------h--------h------|
A|-0-0------0-0------0-0------0-0-----|-5-7-7-7--5-7-7-7--5-7-7-7--5-7-7-7-|
E|------------------------------------|------------------------------------|


G|------------------------------------|------------------------------------|
D|-----7-7------7-7------7-7------7-7-|--h--------h--------h--------h------|
A|-0-0------0-0------0-0------0-0-----|-3-5-5-5--3-5-5-5--3-5-5-5--3-5-5-5-|
E|------------------------------------|------------------------------------|

02:21
G|-----------------|-----9-9---------------------------------|
D|-----------------|-------------7-7-----7-5-----------------|
A|-0-0-3-5-7-7-5-3-|-7-7-----0-0-----0-0-----7-5-3-2-0-----0-|
E|-----------------|-----------------------------------0-3---|X3



ENJOY........

Almost there ...

Sign in to get your own page with links to favourite songs and more. You are just one click away...

Login with Facebook Login with Google