Search tabs and chords

Search for song, artist or band

Log in

One click and you are in

Login with Facebook Login with Google

Why sign up and log in

Guitar Tabs Explorer
Christie bass tabs for New york city

Bass tabs

  • Tuning: Standard tuning
  • Difficulty: Intermediate
--------------------------------------------------------------------------
                          Artist - Christie
                         *******************
                        Song - New York City
                       **********************
                       Album - Christie (1970)
                      *************************
                        Tabbed By - Ayreon77
                       **********************
--------------------------------------------------------------------------
Tuning = Standard
INTRO
******
G|-----------------------|
D|-----6-7~~~-----6-7~~~-|
A|-7-9--------7-9--------|
E|-----------------------|


G|-----------------------------|-----------------------------|
D|-----6-7-7---7--7---7--7---7-|-----6-7-7---7--7---7--7---7-|
A|-7-9-------9------9------9---|-7-9-------9------9------9---|
E|-----------------------------|-----------------------------|


G|-----------------------------|-----------------------------|
D|-----6-7-7---7--7---7--7---7-|-----6-7-7---7--7---7--7---7-|
A|-7-9-------9------9------9---|-7-9-------9------9------9---|
E|-----------------------------|-----------------------------|


---------------------------
00:23
VERSE 1
********
G|------------------------------------|----------------|----------------|
D|-----6-7-7---7--7---7--7---7--7---7-|----------------|-7-7---7--7---7-|
A|-7-9-------9------9------9------9---|-7-7---7--7---7-|-----9------9---|
E|------------------------------------|-----9------9---|----------------|

G|------------------------------|----------------|----------------|
D|-7-7---7--7---7--7---7--7---7-|----------------|-7-7---7--7---7-|
A|-----9------9------9------9---|-7-7---7--7---7-|-----9------9---|
E|------------------------------|-----9------9---|----------------|

00:38
G|----------------|----------------|----------------|----------------|
D|----------------|-7-7---7--7---7-|----------------|-7-7---7--7---7-|
A|-7-7---7--7---7-|-----9------9---|-7-7---7--7---7-|-----9------9---|
E|-----9------9---|----------------|-----9------9---|----------------|


G|----------------|----------------|------------|
D|----------------|-7-7---7--7---7-|-5~~~-------|
A|-7-7---7--7---7-|-----9------9---|-------5~~~-|
E|-----9------9---|----------------|------------|


---------------------------
00:52
BREAK
******
G|-------------------------|-----------------------------|
D|-5-7-7---7--7---7--7---7-|-----6-7-7---7--7---7--7---7-|
A|-------9------9------9---|-7-9-------9------9------9---|
E|-------------------------|-----------------------------|


---------------------------
00:58
VERSE 2
********
G|------------------------------------|----------------|----------------|
D|-----6-7-7---7--7---7--7---7--7---7-|----------------|-7-7---7--7---7-|
A|-7-9-------9------9------9------9---|-7-7---7--7---7-|-----9------9---|
E|------------------------------------|-----9------9---|----------------|


G|------------------------------|----------------|----------------|
D|-7-7---7--7---7--7---7--7---7-|----------------|-7-7---7--7---7-|
A|-----9------9------9------9---|-7-7---7--7---7-|-----9------9---|
E|------------------------------|-----9------9---|----------------|

01:13
G|----------------|----------------|----------------|----------------|
D|----------------|-7-7---7--7---7-|----------------|-7-7---7--7---7-|
A|-7-7---7--7---7-|-----9------9---|-7-7---7--7---7-|-----9------9---|
E|-----9------9---|----------------|-----9------9---|----------------|


G|----------------|----------------|------------|
D|----------------|-7-7---7--7---7-|-5~~~-------|
A|-7-7---7--7---7-|-----9------9---|-------5~~~-|
E|-----9------9---|----------------|------------|


---------------------------
01:27
BREAK
******
G|-----------------------|-----------------------------|-----|
D|-7-7---7--7---7--7---7-|-----6-7-7---7--7---7--7---7-|-----|
A|-----9------9------9---|-7-9-------9------9------9---|-7-9-|
E|-----------------------|-----------------------------|-----|


---------------------------
01:34
CHORUS
*******
G|---------------|---------------|--------------------------------|
D|-7-7---7--7--7-|---------------|-7-7---7--7---7--7-7---7--7---7-|
A|-----9---------|-7-7--7--7-9-7-|-----9------9--------9------9---|
E|---------------|---------------|--------------------------------|


G|----------------|----------------|--------------------------------|
D|-7-7---7--7-6---|--------------6-|-7-7---7--7---7--7-7---7--7-----|
A|-----9--------9-|-7-7---7--7-9---|-----9------9--------9------9-7-|
E|----------------|-----9----------|--------------------------------|

01:48
G|------------------------|----------------------------------|
D|------------------------|-----------------------5~~~-------|
A|-5~~~--------7~~~-------|-5--5--5--5------------------5~~~-|
E|-------5~~~--------5~~~-|------------5--5--5--5------------|


---------------------------
02:02
BREAK
******
G|-----------------------|-----------------------------|-----|
D|-7-7---7--7---7--7---7-|-----6-7-7---7--7---7--7---7-|-----|
A|-----9------9------9---|-7-9-------9------9------9---|-9-7-|
E|-----------------------|-----------------------------|-----|


G|-----------------------|------------------------------------|
D|-7-7---7--7---7--7---7-|-----6-7-7---7--7---7--7---7--7---7-|
A|-----9------9------9---|-7-9-------9------9------9------9---|
E|-----------------------|------------------------------------|


---------------------------
02:16
BRIDGE
*******
G|----------------|----------------|----------------|----------------|
D|----------------|-7-7---7--7---7-|----------------|-7-7---7--7---7-|
A|-7-7---7--7---7-|-----9------9---|-7-7---7--7---7-|-----9------9---|
E|-----9------9---|----------------|-----9------9---|----------------|


G|----------------|----------------|------------|
D|----------------|-7-7---7--7---7-|-5~~~-------|
A|-7-7---7--7---7-|-----9------9---|-------5~~~-|
E|-----9------9---|----------------|------------|


---------------------------
02:29
BREAK
******
G|-----------------------|------------------------------------|
D|-7-7---7--7---7--7---7-|-----6-7-7---7--7---7--7---7--7---7-|
A|-----9------9------9---|-7-9-------9------9------9------9---|
E|-----------------------|------------------------------------|


---------------------------
02:36
CHORUS
*******
G|----------------|----------------|--------------------------------|
D|-7-7---7--7-6---|--------------6-|-7-7---7--7---7--7-7---7------6-|
A|-----9--------9-|-7-7---7--7-9---|-----9------9--------9----7-9---|
E|----------------|-----9----------|--------------------------------|


G|----------------|----------------|--------------------------------|
D|-7-7---7--7-6---|--------------6-|-7-7---7--7---7--7-7---7------6-|
A|-----9--------9-|-7-7---7--7-9---|-----9------9--------9----7-9---|
E|----------------|-----9----------|--------------------------------|

02:50
G|----------------|----------------|----------------|----------------|
D|-7-7---7--7-6---|--------------6-|-7-7---7--7-6---|--------------6-|
A|-----9--------9-|-7-7---7--7-9---|-----9--------9-|-7-7---7--7-9---|
E|----------------|-----9----------|----------------|-----9----------|


G|----------------|----------------|-----------------------------|
D|-7-7---7--7---7-|--------------6-|-7-7---7--7---7--------------|
A|-----9------9---|-7-7---7--7-9---|-----9------9---9-7----------|
E|----------------|-----9----------|--------------------9---5~~~-|



ENJOY...............

Almost there ...

Sign in to get your own page with links to favourite songs and more. You are just one click away...

Login with Facebook Login with Google