Guitar Tabs Explorer
Christie bass tabs for Johnny one time

Johnny One Time bass tab


Be the first to rate


Ayreon77Author: Ayreon77

Johnny One Time bass tab by Christie

Bass tabs

Print
  • Tuning: Standard tuning
  • Difficulty: Intermediate
--------------------------------------------------------------------------
                          Artist - Christie
                         *******************
                        Song - Johnny One Time
                       ************************
                       Album - Christie (1970)
                      *************************
                        Tabbed By - Ayreon77
                       **********************
--------------------------------------------------------------------------
Tuning = Standard


INTRO
******
G|-------------|-------------|
D|-------------|-------------|
A|-5~~-3~~-0~~-|-5~~-3~~-0~~-|
E|-------------|-------------|

00:10
G|-------------------|-------------------|-------------------|------------------|
D|-------------------|-------------------|-------------------|------------------|
A|-0--0-0---0--0-5-3-|-0--0-0---0--0-5-3-|-0--0-0---0--0-5-3-|-0--0-0---0-0-5-3-|
E|-------------------|-------------------|-------------------|------------------|


-------------------------
00:26
VERSE 1
********
G|----------------------------|---------------------------------------|
D|----------------------------|---------------------------------------|
A|-0--0-0---0--0-0---0--0-5-3-|-0--0-0---0--0-0----0--0-0----0--0-5-3-|
E|----------------------------|---------------------------------------|


G|-------------------------|------------------------------7--7-----------------------|
D|-----------------4-7-4---|-4--4------4--4--------4-7--7------7--7------------------|
A|-0--0-0---0--4-7-------7-|------4--4------4--4-5------------------7--7-7-7-7-7-7-7-|
E|-------------------------|---------------------------------------------------------|

00:55
G|-------------------|-------------------|-------------------|------------------|
D|-------------------|-------------------|-------------------|------------------|
A|-0--0-0---0--0-5-3-|-0--0-0---0--0-5-3-|-0--0-0---0--0-5-3-|-0--0-0---0-0-5-3-|
E|-------------------|-------------------|-------------------|------------------|


-------------------------
01:10
VERSE 2
********
G|----------------------------|---------------------------------------|
D|----------------------------|---------------------------------------|
A|-0--0-0---0--0-0---0--0-5-3-|-0--0-0---0--0-0----0--0-0----0--0-5-3-|
E|----------------------------|---------------------------------------|


G|-------------------------|------------------------------------------------------------------|
D|-----------------4-7-4---|-4--4------4-----4-----4------------------------------------------|
A|-0--0-0---0--4-7-------7-|------4--4---4-7---4-7---5--5------5---3-5---5-6-7--7-7-7-7-7-7-7-|
E|-------------------------|------------------------------5--5---5-----5----------------------|


01:39
G|-------------------|-------------------|-------------------|------------------|---|
D|-------------------|-------------------|-------------------|------------------|---|
A|-0--0-0---0--0-5-3-|-0--0-0---0--0-5-3-|-0--0-0---0--0-5-3-|-0--0-0---0-0-5-3-|-0-|
E|-------------------|-------------------|-------------------|------------------|---|


-------------------------
02:02
******
BREAK
******
G|-------------|-------------|
D|-------------|-------------|
A|-5~~-3~~-0~~-|-5~~-3~~-0~~-|
E|-------------|-------------|

02:11
G|-------------------|-------------------|-------------------|------------------|
D|-------------------|-------------------|-------------------|------------------|
A|-0--0-0---0--0-5-3-|-0--0-0---0--0-5-3-|-0--0-0---0--0-5-3-|-0--0-0---0-0-5-3-|
E|-------------------|-------------------|-------------------|------------------|


-------------------------
02:26
VERSE 3
********
G|----------------------------|---------------------------------------|
D|----------------------------|---------------------------------------|
A|-0--0-0---0--0-0---0--0-5-3-|-0--0-0---0--0-0----0--0-0----0--0-5-3-|
E|----------------------------|---------------------------------------|


G|----------s------s------s------s----|------------------------------------7---------------------|
D|---------5\7-7--5\7-7--5\7-7--5\7-7-|-4--4------4--4-----------4--4-7--7----7------------------|
A|-0--0-0-----------------------------|------4--4------4--4-5--5----------------7--7-7-7-7-7-7-7-|
E|------------------------------------|----------------------------------------------------------|

02:56
G|-------------------|-------------------|-------------------|-------------------|---|
D|-------------------|-------------------|-------------------|-------------------|---|
A|-0--0-0---0--0-5-3-|-0--0-0---0--0-5-3-|-0--0-0---0--0-5-3-|-0--0-0---0--0-5-3-|-0-|
E|-------------------|-------------------|-------------------|-------------------|---|



ENJOY...........

Comment this song and these bass tabs

Do you have corrections, comments on the bass tabs, thoughts about the song or a message to the author? Write them below.