Guitar Tabs Explorer
Christie bass tabs for Ive got a feeling

I've Got A Feeling bass tab


Be the first to rate


Ayreon77Author: Ayreon77

I've Got A Feeling bass tab by Christie

Bass tabs

Print
  • Tuning: Standard tuning
  • Difficulty: Intermediate
--------------------------------------------------------------------------
                          Artist - Christie
                         *******************
                      Song - I`ve Got A Feeling
                     ***************************
                       Album - Christie (1970)
                      *************************
                        Tabbed By - Ayreon77
                       **********************
--------------------------------------------------------------------------
Tuning = Standard


INTRO
******
G|-----------4-5-5-5-5-4---------------------------|
D|-5-5-5-5-7-------------7-5-5-5-5-4---------------|
A|-----------------------------------7-5-5-5-5-5-5-|
E|-------------------------------------------------|


----------------------
00:06
CHORUS
*******
G|--s---4-7--4-7-|-------------|--s---4-7--4-7-|---------------|
D|-4\5-----------|----4-7--4-7-|-4\5-----------|-----s--5----5-|
A|---------------|-5-----------|---------------|-3--5\7----7---|
E|---------------|-------------|---------------|---------------|


G|--s-----------------|
D|-4\5--5-6--6-7--8---|
A|------------------5-|
E|--------------------|


----------------------
00:26
BREAK
******
G|-----------4-5-5-5-5-4---------------------------|
D|-5-5-5-5-7-------------7-5-5-5-5-4---------------|
A|-----------------------------------7-5-5-5-5-5-5-|
E|-------------------------------------------------|


----------------------
00:32
CHORUS
*******
G|--s---4-7--4-7-|-------------|--s---4-7--4-7-|---------------|
D|-4\5-----------|----4-7--4-7-|-4\5-----------|-----s--5----5-|
A|---------------|-5-----------|---------------|-3--5\7----7---|
E|---------------|-------------|---------------|---------------|


G|--s-----------------|-------|
D|-4\5--5-6--6-7--8---|-----4-|
A|------------------5-|-5-7---|
E|--------------------|-------|


----------------------
00:52
BREAK
******
G|-----------4-5-5-5-5-4----------------s-------s------|
D|-5-5-5-5-7-------------7-5-5-5-5-5-5-4\5-5-5-4\5-----|
A|-------------------------------------------------7-5-|
E|-----------------------------------------------------|


----------------------
00:58
BRIDGE
*******
G|----------------------------------|--s----s-------------s----s----s---------|
D|------s--5----5------s--5--5----5-|-4\5--4\5---------4-4\5--4\5--4\5--5-----|
A|-3~~-5\7----7---4~~-5\7------7----|-----------5--5-7--------------------7-5-|
E|----------------------------------|-----------------------------------------|


G|--------------------------------|
D|--------------------------------|
A|--------7-----7-------s--7----7-|
E|-5~~--9-----9----5~~-7\9----9---|


G|-------------|---------------|-----------------|-------------|
D|-------------|--s------------|--s-------s------|-------------|
A|-5-5-5-5-5-5-|-4\5-5-5-5-5-5-|-4\5-5-5-4\5-5-5-|-5-7-5-------|
E|-------------|---------------|-----------------|-------8-7-5-|


----------------------
01:24
CHORUS
*******
G|--s---4-7--4-7-|-------------|--s---4-7--4-7-|---------------|
D|-4\5-----------|----4-7--4-7-|-4\5-----------|-----s--5----5-|
A|---------------|-5-----------|---------------|-3--5\7----7---|
E|---------------|-------------|---------------|---------------|


G|--s-----------------|
D|-4\5--5-6--6-7--8---|
A|------------------5-|
E|--------------------|


----------------------
01:44
BREAK
******
G|-----------4-5-5-5-5-4----------------s-------s------|
D|-5-5-5-5-7-------------7-5-5-5-5-5-5-4\5-5-5-4\5-----|
A|-------------------------------------------------7-5-|
E|-----------------------------------------------------|


----------------------
01:51
BRIDGE
*******
G|----------------------------------|--s----s-------------s----s----s---------|
D|------s--5----5------s--5--5----5-|-4\5--4\5---------4-4\5--4\5--4\5--5-----|
A|-3~~-5\7----7---4~~-5\7------7----|-----------5--5-7--------------------7-5-|
E|----------------------------------|-----------------------------------------|


G|--------------------------------|
D|--------------------------------|
A|--------7-----7-------s--7----7-|
E|-5~~--9-----9----5~~-7\9----9---|


G|-------------|---------------|-----------------|-------------|
D|-------------|--s------------|--s-------s------|-------------|
A|-5-5-5-5-5-5-|-4\5-5-5-5-5-5-|-4\5-5-5-4\5-5-5-|-5-7-5-------|
E|-------------|---------------|-----------------|-------8-7-5-|


----------------------
02:17
CHORUS
*******
G|--s---4-7--4-7-|-------------|--s---4-7--4-7-|---------------|
D|-4\5-----------|----4-7--4-7-|-4\5-----------|-----s--5----5-|
A|---------------|-5-----------|---------------|-3--5\7----7---|
E|---------------|-------------|---------------|---------------|


G|--s-----------------|-------|
D|-4\5--5-6--6-7--8---|-----4-|
A|------------------5-|-5-7---|
E|--------------------|-------|


----------------------
00:52
OUTRO
******
G|-----------4-5-5-5-5-4--------------|
D|-5-5-5-5-7-------------7-5--6-5~~~~-|
A|------------------------------------|
E|------------------------------------|



ENJOY...........

Comment this song and these bass tabs

Do you have corrections, comments on the bass tabs, thoughts about the song or a message to the author? Write them below.