Guitar Tabs Explorer
Christie bass tabs for Inside looking out

Inside Looking Out bass tab


Be the first to rate


Ayreon77Author: Ayreon77

Inside Looking Out bass tab by Christie

Bass tabs

Print
  • Tuning: Standard tuning
  • Difficulty: Intermediate
--------------------------------------------------------------------------
                          Artist - Christie
                         *******************
                      Song - Inside Looking Out
                     ***************************
                       Album - Christie (1970)
                      *************************
                        Tabbed By - Ayreon77
                       **********************
--------------------------------------------------------------------------
Tuning = Standard


00:03
INTRO
******
G|------------|------------|------------|----------------|
D|-------5----|-------5----|-------5----|----------------|
A|-7--------5-|-7--------5-|-7--------5-|-7-----7----4-6-|
E|----7-------|----7-------|----7-------|----7-----7-----|


--------------------------
00:13
VERSE 1
********
G|-------------------------------|------------------------------|
D|-------------------------------|------------------------------|
A|-7------7------7------7----4-6-|-7------7------7------7-5-4---|
E|----7------7------7------7-----|----7------7------7---------7-|


G|------------------------|--------------------------|
D|-------7-----------7--6-|-4------4------4-----4----|
A|----7-----7-----7-------|----4------4------4-----4-|
E|-5-----------5----------|--------------------------|


--------------------------
00:33
CHORUS
*******
G|-4-4-4-------------------|
D|--------7--7--6--6--4--4-|
A|-------------------------|
E|-------------------------|


--------------------------
00:38
BREAK
******
G|------------|------------|------------|------------|
D|-------5----|-------5----|-------5----|------------|
A|-7--------5-|-7--------5-|-7--------5-|-7-----7----|
E|----7-------|----7-------|----7-------|----7-----7-|


--------------------------
00:48
BRIDGE
*******
G|------------------------|------------------------------------|
D|-7-----7-----9-----9----|-6-----7-----9--9--7--7--6--6--4--4-|
A|----7-----7-----9-----9-|----6-----7-------------------------|
E|------------------------|------------------------------------|


--------------------------
01:00
VERSE 2
********
G|-------------------------------|------------------------------|
D|-------------------------------|------------------------------|
A|-7------7------7------7----4-6-|-7------7------7------7-5-4---|
E|----7------7------7------7-----|----7------7------7---------7-|


G|------------------------|--------------------------|
D|-------7-----------7--6-|-4------4------4-----4----|
A|----7-----7-----7-------|----4------4------4-----4-|
E|-5-----------5----------|--------------------------|


--------------------------
01:20
CHORUS
*******
G|-4-4-4-------------------|
D|--------7--7--6--6--4--4-|
A|-------------------------|
E|-------------------------|


--------------------------
01:25
BREAK
******
G|------------|------------|------------|------------|
D|-------5----|-------5----|-------5----|------------|
A|-7--------5-|-7--------5-|-7--------5-|-7-----7----|
E|----7-------|----7-------|----7-------|----7-----7-|


--------------------------
01:35
BRIDGE
*******
G|------------------------|------------------------------------|
D|-7-----7-----9-----9----|-6-----7-----9--9--7--7--6--6--4--4-|
A|----7-----7-----9-----9-|----6-----7-------------------------|
E|------------------------|------------------------------------|


--------------------------
01:48
VERSE 3
********
G|-------------------------------|------------------------------|
D|-------------------------------|------------------------------|
A|-7------7------7------7----4-6-|-7------7------7------7-5-4---|
E|----7------7------7------7-----|----7------7------7---------7-|


G|------------------------|--------------------------|
D|-------7-----------7--6-|-4------4------4-----4----|
A|----7-----7-----7-------|----4------4------4-----4-|
E|-5-----------5----------|--------------------------|


--------------------------
02:07
CHORUS
*******
G|-4-4-4-------------------|
D|--------7--7--6--6--4--4-|
A|-------------------------|
E|-------------------------|


--------------------------
02:12
BREAK
******
G|------------|------------|------------|------------|
D|-------5----|-------5----|-------5----|------------|
A|-7--------5-|-7--------5-|-7--------5-|-7-----7----|
E|----7-------|----7-------|----7-------|----7-----7-|


--------------------------
02:22
CHORUS
*******
G|-4-4-4-------------------|
D|--------7--7--6--6--4--4-|
A|-------------------------|
E|-------------------------|


--------------------------
02:27
OUTRO
******
G|------------|------------|------------|-----------------|
D|-------5----|-------5----|-------5----|-----------------|
A|-7--------5-|-7--------5-|-7--------5-|-7-----7----7~~~-|
E|----7-------|----7-------|----7-------|----7-----7------|



ENJOY..........

Comment this song and these bass tabs

Do you have corrections, comments on the bass tabs, thoughts about the song or a message to the author? Write them below.