Search tabs and chords

Search for song, artist or band

Log in

One click and you are in

Login with Facebook Login with Google

Why sign up and log in

Guitar Tabs Explorer
Christie bass tabs for Here i am

Bass tabs

  • Tuning: Standard tuning
  • Difficulty: Intermediate
--------------------------------------------------------------------------
                          Artist - Christie
                         *******************
                          Song - Here I Am
                         ******************
                       Album - Christie (1970)
                      *************************
                        Tabbed By - Ayreon77
                       **********************
--------------------------------------------------------------------------
Tuning = Standard
INTRO
******
G|-----------------------|----------------|------------------------|
D|-4-5-6-7-7-7-7-7-7-7-7-|-4-5-5-5--5-5-5-|----4--5--6--7--5--4----|
A|-----------------------|----------------|-5--------------------7-|
E|-----------------------|----------------|------------------------|


-------------------------
00:05
VERSE 1
********
G|----------------|----------------|----------------|----------------|
D|----------------|----------------|----------------|----------------|
A|-3-5-5-5--5-5-5-|-3-5-5-5--5-5-5-|-3-5-5-5--5-5-5-|-3-5-5-5--5-5-5-|
E|----------------|----------------|----------------|----------------|


G|----------------|----------------|----------------|----------------|
D|-3-5-5-5--5-5-5-|-3-5-5-5--5-5-5-|----------------|----------------|
A|----------------|----------------|-3-5-5-5--5-5-5-|-3-5-5-5--5-5-5-|
E|----------------|----------------|----------------|----------------|

G|--h-------------|--h-------------|
D|-6-7-7-7--7-7-7-|-4-5-5-5--5-5-5-|
A|----------------|----------------|
E|----------------|----------------|


G|-------------------|----------------|
D|-------------------|----------------|
A|-3-5-5-5-5-5-5-5-5-|-3-5-5-5--5-5-5-|
E|-------------------|----------------|


-------------------------
00:20
VERSE 2
*********
G|----------------|----------------|----------------|----------------|
D|----------------|----------------|----------------|----------------|
A|-3-5-5-5--5-5-5-|-3-5-5-5--5-5-5-|-3-5-5-5--5-5-5-|-3-5-5-5--5-5-5-|
E|----------------|----------------|----------------|----------------|


G|----------------|----------------|----------------|----------------|
D|-3-5-5-5--5-5-5-|-3-5-5-5--5-5-5-|----------------|----------------|
A|----------------|----------------|-3-5-5-5--5-5-5-|-3-5-5-5--5-5-5-|
E|----------------|----------------|----------------|----------------|


G|--h-------------|--h-------------|
D|-6-7-7-7--7-7-7-|-4-5-5-5--5-5-5-|
A|----------------|----------------|
E|----------------|----------------|


G|-------------------|---------|
D|-------------------|---------|
A|-3-5-5-5-5-5-5-5-5-|-3-5-5-5-|
E|-------------------|---------|


-------------------------
00:34
CHORUS
*******
G|-------|-------|-------|-----------------|
D|-------|-------|-------|-----------------|
A|---3-5-|---3---|---3-5-|---3--5--3--2----|
E|-5-----|-5---3-|-5-----|-5-------------5-|


G|----------------|----------------|----------------|----------------|
D|-3-5-5-5--5-5-5-|-3-5-5-5--5-5-5-|----------------|----------------|
A|----------------|----------------|-3-5-5-5--5-5-5-|-3-5-5-5--5-5-5-|
E|----------------|----------------|----------------|----------------|


G|--h-------------|--h-------------|
D|-6-7-7-7--7-7-7-|-4-5-5-5--5-5-5-|
A|----------------|----------------|
E|----------------|----------------|


G|------------------|---------|
D|------------------|---------|
A|-3-5-5-5--5-5-5-5-|-3-5-5-5-|
E|------------------|---------|

00:49
G|-----------|-----------|-----------|-----------------|
D|-----------|-----------|-----------|-----------------|
A|---3-5-5-5-|---3-------|---3-5-5-5-|---3--5--3--2----|
E|-5---------|-5---3-3-3-|-5---------|-5-------------5-|


-------------------------
00:54
PIANO
******
G|-------|-------|-------|-----------------|
D|-------|-------|-------|-----------------|
A|---3-5-|---3---|---3-5-|---3--5--3--2----|
E|-5-----|-5---3-|-5-----|-5-------------5-|


G|----------------|----------------|----------------|----------------|
D|-3-5-5-5--5-5-5-|-3-5-5-5--5-5-5-|----------------|----------------|
A|----------------|----------------|-3-5-5-5--5-5-5-|-3-5-5-5--5-5-5-|
E|----------------|----------------|----------------|----------------|


G|--h-------------|--h-------------|--h-------------|--h-------------|
D|-6-7-7-7--7-7-7-|-6-7-7-7--7-7-7-|-4-5-5-5--5-5-5-|-4-5-5-5--5-5-5-|
A|----------------|----------------|----------------|----------------|
E|----------------|----------------|----------------|----------------|


G|----------------|----------------|----------------|----------7-5-------|
D|----------------|----------------|----------------|--------------7-5-3-|
A|-3-5-5-5--5-5-5-|-3-5-5-5--5-5-5-|-3-5-5-5--5-5-5-|-3-5-5-5------------|
E|----------------|----------------|----------------|--------------------|


-------------------------
01:08
SOLO
*****
G|----------------|----------------|----------------|----------------|
D|----------------|----------------|----------------|----------------|
A|-3-5-5-5--5-5-5-|-3-5-5-5--5-5-5-|-3-5-5-5--5-5-5-|-3-5-5-5--5-5-5-|
E|----------------|----------------|----------------|----------------|


G|----------------|----------------|----------------|----------------|
D|-3-5-5-5--5-5-5-|-3-5-5-5--5-5-5-|----------------|----------------|
A|----------------|----------------|-3-5-5-5--5-5-5-|-3-5-5-5--5-5-5-|
E|----------------|----------------|----------------|----------------|


G|--h-------------|--h-------------|--h-------------|--h-------------|
D|-6-7-7-7--7-7-7-|-6-7-7-7--7-7-7-|-4-5-5-5--5-5-5-|-4-5-5-5--5-5-5-|
A|----------------|----------------|----------------|----------------|
E|----------------|----------------|----------------|----------------|


G|----------------|----------------|----------------|----------7-5-------|
D|----------------|----------------|----------------|--------------7-5-3-|
A|-3-5-5-5--5-5-5-|-3-5-5-5--5-5-5-|-3-5-5-5--5-5-5-|-3-5-5-5------------|
E|----------------|----------------|----------------|--------------------||


-------------------------
01:28
VERSE 3
********
G|----------------|----------------|----------------|----------------|
D|----------------|----------------|----------------|----------------|
A|-3-5-5-5--5-5-5-|-3-5-5-5--5-5-5-|-3-5-5-5--5-5-5-|-3-5-5-5--5-5-5-|
E|----------------|----------------|----------------|----------------|


G|----------------|----------------|----------------|----------------|
D|-3-5-5-5--5-5-5-|-3-5-5-5--5-5-5-|----------------|----------------|
A|----------------|----------------|-3-5-5-5--5-5-5-|-3-5-5-5--5-5-5-|
E|----------------|----------------|----------------|----------------|


G|--h-------------|--h-------------|
D|-6-7-7-7--7-7-7-|-4-5-5-5--5-5-5-|
A|----------------|----------------|
E|----------------|----------------|


G|----------------|----------------|
D|----------------|----------------|
A|-3-5-5-5--5-5-5-|-3-5-5-5--5-5-5-|
E|----------------|----------------|



-------------------------
01:42
VERSE 4
********
G|----------------|----------------|----------------|----------------|
D|----------------|----------------|----------------|----------------|
A|-3-5-5-5--5-5-5-|-3-5-5-5--5-5-5-|-3-5-5-5--5-5-5-|-3-5-5-5--5-5-5-|
E|----------------|----------------|----------------|----------------|


G|----------------|----------------|----------------|----------------|
D|-3-5-5-5--5-5-5-|-3-5-5-5--5-5-5-|----------------|----------------|
A|----------------|----------------|-3-5-5-5--5-5-5-|-3-5-5-5--5-5-5-|
E|----------------|----------------|----------------|----------------|


G|--h-------------|--h-------------|
D|-6-7-7-7--7-7-7-|-4-5-5-5--5-5-5-|
A|----------------|----------------|
E|----------------|----------------|


G|----------------|---------|
D|----------------|---------|
A|-3-5-5-5--5-5-5-|-3-5-5-5-|
E|----------------|---------|


-------------------------
01:56
CHORUS
*******
CHORUS
*******
G|-------|-------|-------|-----------------|
D|-------|-------|-------|-----------------|
A|---3-5-|---3---|---3-5-|---3--5--3--2----|
E|-5-----|-5---3-|-5-----|-5-------------5-|


G|----------------|----------------|----------------|----------------|
D|-3-5-5-5--5-5-5-|-3-5-5-5--5-5-5-|----------------|----------------|
A|----------------|----------------|-3-5-5-5--5-5-5-|-3-5-5-5--5-5-5-|
E|----------------|----------------|----------------|----------------|


G|--h-------------|--h-------------|
D|-6-7-7-7--7-7-7-|-4-5-5-5--5-5-5-|
A|----------------|----------------|
E|----------------|----------------|


G|------------------|---------|
D|------------------|---------|
A|-3-5-5-5--5-5-5-5-|-3-5-5-5-|
E|------------------|---------|

02:10
G|-----------|-----------|-----------|-----------------|
D|-----------|-----------|-----------|-----------------|
A|---3-5-5-5-|---3-------|---3-5-5-5-|---3--5--3--2----|
E|-5---------|-5---3-3-3-|-5---------|-5-------------5-|


-------------------------
02:16
OUTRO
******
G|----------------|----------------|----------------|----------------|
D|-3-5-5-5--5-5-5-|-3-5-5-5--5-5-5-|----------------|----------------|
A|----------------|----------------|-3-5-5-5--5-5-5-|-3-5-5-5--5-5-5-|
E|----------------|----------------|----------------|----------------|


G|--h-------------|--h-------------|--h-------------|--h-------------|
D|-6-7-7-7--7-7-7-|-6-7-7-7--7-7-7-|-4-5-5-5--5-5-5-|-4-5-5-5--5-5-5-|
A|----------------|----------------|----------------|----------------|
E|----------------|----------------|----------------|----------------|


G|------------------------------|-----6-7----|
D|-------4--4--5--5--6--6--7--7-|-7-9--------|
A|-5--5-------------------------|----------5-|
E|------------------------------|------------|



ENJOY...........

Almost there ...

Sign in to get your own page with links to favourite songs and more. You are just one click away...

Login with Facebook Login with Google