Search tabs and chords

Search for song, artist or band

Log in

One click and you are in

Login with Facebook Login with Google

Why sign up and log in

Guitar Tabs Explorer
Christie guitar tabs for Down the mississippi line

Guitar tabs

"DOWN THE MISSISSIPPI LINE"
by Christie


 Solo 1:

  01:12
e|-----------------------------------|-------------------------------------|
B|-----------------------------------|-------------------------------------|
G|-----------------------------------|----------11-9-----------------------|
D|--7-9fb--9fb--9fb-9-7---7-9-7---7--|-9-7-9/11------11\9-7-9-7-9br-7---7--|
A|----------------------9-------9----|--------------------------------9----|
E|-----------------------------------|-------------------------------------|

e|-----------------------------------|-----------------------------------------|
B|-----------------------------------|-----------------------------------------|
G|-----------------------------------|----------11-9---------------------------|
D|--9-7-9fb--9fb--9fb-7---7-9-7---7--|-9-7-9/11------11-\9-7-9---7---9p7-7--7--|
A|----------------------9-------9----|-------------------------9---------------|
E|-----------------------------------|-----------------------------------------|



 Solo 2:

  01:54
e|-----------------------------------|-------------14-12----------------------------------|
B|--12fb--12fb--10----10-10-12----10-|-12-10-12/14-------14-12-10-12-10-12fb-12-10----10--|
G|-----------------11----------11----|---------------------------------------------11-----|
D|-----------------------------------|----------------------------------------------------|
A|-----------------------------------|----------------------------------------------------|
E|-----------------------------------|----------------------------------------------------|

e|--------10/12--12--12-------------------------|-------------14-12--------------------------------------|
B|--12-10-12/14--14--14--14\10--10-12-10----10--|-12-10-12/14-------14-12-10-12----10---12fb-12-10---10--|
G|---------------------------------------11-----|-------------------------------11-----------------------|
D|----------------------------------------------|--------------------------------------------------------|
A|----------------------------------------------|--------------------------------------------------------|
E|----------------------------------------------|--------------------------------------------------------|

  02:07
e|-12fb--12-------------------------------------|----------14\12-----------------------14-12-----------------|
B|-----------g12fb-12-10---10-10-12----10-12-10-|g12/14-14-------12fb-12-10-10-10-12/14-----14-13-12---------|
G|----------------------------------11----------|---------------------------------------------------14-11--14|
D|----------------------------------------------|------------------------------------------------------------|
A|----------------------------------------------|------------------------------------------------------------|
E|----------------------------------------------|------------------------------------------------------------|

e|---------------------------------------------------14--12----------------------|
B|-(10)-12fb-12p10---12p10---12p10-12p10-12p10-12/14---------14--12--10--12p10---|
G|----------------11------11--------------------------------------------------11-| this phrase
D|-------------------------------------------------------------------------------| continued
A|-------------------------------------------------------------------------------| below...
E|-------------------------------------------------------------------------------|

e|---------------------------------------------------|
B|--10h12p10----10-12fb-12-10------10---12fbr--10----|
G|----------h11---------------11-9-------------------|
D|---------------------------------------------------|
A|---------------------------------------------------|
E|---------------------------------------------------|

  02:20
e|----------------------------------------------------------------|
B|--12-10-12fb-10-----12fb-10------10-10-12p10-----10-10-12p10----|
G|----------------11----------11--------------h11-------------h11-|
D|----------------------------------------------------------------|
A|----------------------------------------------------------------|
E|----------------------------------------------------------------|

e|-------------------------------------------------------------------|
B|-----10--12p10---------10--12p10---------10--12p10-10---10-12-10---|
G|-9h11---------h11--9h11---------h11--9h11--------------------------|
D|-------------------------------------------------------------------|
A|-------------------------------------------------------------------|
E|-------------------------------------------------------------------|


************************************

| fb   Full bend
| /    Slide up
| \    Slide down
| p    Pull off
| h    Hammer on
| g    Grace note
| ()   Ghost note

************************************

Other versions of Down The Mississippi Line

Down the mississippi lineChords

Almost there ...

Sign in to get your own page with links to favourite songs and more. You are just one click away...

Login with Facebook Login with Google