Search tabs and chords

Search for song, artist or band

Log in

One click and you are in

Login with Facebook Login with Google

Why sign up and log in

Guitar Tabs Explorer
Christie bass tabs for Country boy

Bass tabs

  • Tuning: Standard tuning
  • Difficulty: Intermediate
--------------------------------------------------------------------------
Artist - Christie
*******************
Song - Country Boy
********************
Album - Christie (1970)
*************************
Tabbed By - Ayreon77
**********************
--------------------------------------------------------------------------
Tuning = Standard
INTRO
******
G|---------------------|---------------------|---------------------|---------------------|---|
D|------2--2------4--4-|------2--2------4--4-|------2--2------4--4-|------2--2------4--4-|---|
A|-4--4------2--2------|-4--4------2--2------|-4--4------2--2------|-4--4------2--2------|---|
E|---------------------|---------------------|---------------------|---------------------|-4-|


-----------------------
00:19
VERSE 1
********
G|---------------------|---------------------|---------------------|---------------------|
D|------4--4------4--4-|------4--4------4--4-|------4--4------4--4-|------4--4------4--4-|
A|-4--4------4--4------|-4--4------4--4------|-4--4------4--4------|-4--4------4--4------|
E|---------------------|---------------------|---------------------|---------------------|


-----------------------
00:35
CHORUS
*******
G|----------------------|---------------------------|
D|-----------7--7--7--7-|-----------6-6-6-6-6-6-6-6-|
A|------7--7------------|------6--6-----------------|
E|-5--5-----------------|-4--4----------------------|

-----------------------
00:43
BREAK
******
G|---------------------|---------------------|
D|------2--2------4--4-|------2--2------4--4-|
A|-4--4------2--2------|-4--4------2--2------|
E|---------------------|---------------------|


-----------------------
00:50
VERSE 2
********
G|------------------------|------------------------|------------------------|------------------------|
D|------4--4------4-4-3---|------4--4------4-4-3---|------4--4------4-4-3---|------4--4------4-4-3---|
A|-4--4------4--4-------6-|-4--4------4--4-------6-|-4--4------4--4-------6-|-4--4------4--4-------6-|
E|------------------------|------------------------|------------------------|------------------------|


-----------------------
01:06
CHORUS
*******
G|----------------------|---------------------------|
D|-----------7--7--7--7-|-----------6-6-6-6-6-6-6-6-|
A|------7--7------------|------6--6-----------------|
E|-5--5-----------------|-4--4----------------------|


-----------------------
01:14
BREAK
******
G|---------------------|---------------------|
D|------2--2------4--4-|------2--2------4--4-|
A|-4--4------2--2------|-4--4------2--2------|
E|---------------------|---------------------|


-----------------------
01:22
SOLO
*****
G|------------|
D|------4-----|
A|-4--4---7-5-|
E|------------|X8


G|----------------------|---------------------------|
D|-----------7--7--7--7-|-----------6-6-6-6-6-6-6-6-|
A|------7--7------------|------6--6-----------------|
E|-5--5-----------------|-4--4----------------------|


-----------------------
01:45
BREAK
******
G|---------------------|---------------------|
D|------2--2------4--4-|------2--2------4--4-|
A|-4--4------2--2------|-4--4------2--2------|
E|---------------------|---------------------|


01:53
VERSE 3
********
G|------------------------|------------------------|------------------------|------------------------|
D|------4--4------4-4-3---|------4--4------4-4-3---|------4--4------4-4-3---|------4--4------4-4-3---|
A|-4--4------4--4-------6-|-4--4------4--4-------6-|-4--4------4--4-------6-|-4--4------4--4-------6-|
E|------------------------|------------------------|------------------------|------------------------|


-----------------------
02:08
CHORUS
*******
G|----------------------|---------------------------|
D|-----------7--7--7--7-|-----------6-6-6-6-6-6-6-6-|
A|------7--7------------|------6--6-----------------|
E|-5--5-----------------|-4--4----------------------|


-----------------------
02:16
BREAK
******
G|---------------------|---------------------|---------------------|---------------------|---|
D|------2--2------4--4-|------2--2------4--4-|------2--2------4--4-|------2--2------4--4-|---|
A|-4--4------2--2------|-4--4------2--2------|-4--4------2--2------|-4--4------2--2------|-4-|
E|---------------------|---------------------|---------------------|---------------------|---|



ENJOY.............

Almost there ...

Sign in to get your own page with links to favourite songs and more. You are just one click away...

Login with Facebook Login with Google