Search tabs and chords

Search for song, artist or band

Log in

One click and you are in

Login with Facebook Login with Google

Why sign up and log in

Guitar Tabs Explorer
Christie bass tabs for Coming home tonight

Bass tabs

  • Tuning: Standard tuning
  • Difficulty: Novice
--------------------------------------------------------------------------
                          Artist - Christie
                         *******************
                      Song - Coming Home Tonight
                     ****************************
                       Album - Christie (1970)
                      *************************
                        Tabbed By - Ayreon77
                       **********************
--------------------------------------------------------------------------
Tuning = Standard
INTRO
******
G|----------------------------------------------------------------|
D|----------------------------------------------------------------|
A|---------3--3-3----------3--3-3----------3--3-3----------3--3-3-|
E|-3--3-3----------3--3-3----------3--3-3----------3--3-3---------|


----------------------
00:15
VERSE 1
********
G|--------|--------|--------|--------|--------|--------|
D|--------|--------|--------|--------|--------|--------|
A|-5--5-5-|--------|-5--5-5-|--------|-5--5-5-|--------|
E|--------|-3--3-3-|--------|-3--3-3-|--------|-3--3-3-|


----------------------
00:25
CHORUS
*******
G|--------|--------|--------|--------|
D|--------|--------|--------|--------|
A|-5--5-5-|--------|-5--5-5-|--------|
E|--------|-3--3-3-|--------|-3--3-3-|

----------------------
00:32
BREAK
******
G|--------|--------|--------|--------|--------|--------|--------|--------|
D|--------|--------|--------|--------|--------|--------|--------|--------|
A|--------|-3--3-3-|--------|-3--3-3-|--------|-3--3-3-|--------|-3--3-3-|
E|-3--3-3-|--------|-3--3-3-|--------|-3--3-3-|--------|-3--3-3-|--------|


----------------------
00:45
VERSE 2
********
G|--------|--------|--------|--------|--------|--------|
D|--------|--------|--------|--------|--------|--------|
A|-5--5-5-|--------|-5--5-5-|--------|-5--5-5-|--------|
E|--------|-3--3-3-|--------|-3--3-3-|--------|-3--3-3-|


----------------------
00:56
CHORUS
*******
G|--------|--------|--------|-----------------|
D|--------|--------|--------|-----------------|
A|-5--5-5-|--------|-5--5-5-|-----------------|
E|--------|-3--3-3-|--------|-3-3-3-3-3-3-4-5-|


----------------------
01:03
BRIDGE
*******
G|--------|--------|--------|--------|--------|--------|--------|------------|
D|--------|--------|--------|--------|--------|--------|--------|--------0-2-|
A|--------|--------|--------|--------|--------|--------|-3--3-3-|-3--3-3-----|
E|-6--6-6-|-6--6-6-|-6--6-6-|-6--6-6-|-4--4-4-|-4--4-4-|--------|------------|

01:16
G|--------|--------|--------|--------|--------|--------|--------|--------|
D|-3--3-3-|-3--3-3-|-3--3-3-|-3--3-3-|-1--1-1-|-1--1-1-|--------|--------|
A|--------|--------|--------|--------|--------|--------|-3--3-3-|-3--3-3-|
E|--------|--------|--------|--------|--------|--------|--------|--------|


----------------------
01:30
VERSE 3
********
G|--------|--------|--------|--------|--------|--------|
D|--------|--------|--------|--------|--------|--------|
A|-5--5-5-|--------|-5--5-5-|--------|-5--5-5-|--------|
E|--------|-3--3-3-|--------|-3--3-3-|--------|-3--3-3-|


----------------------
01:40
CHORUS
*******
G|--------|--------|--------|-----------------|
D|--------|--------|--------|-----------------|
A|-5--5-5-|--------|-5--5-5-|-----------------|
E|--------|-3--3-3-|--------|-3-3-3-3-3-3-4-5-|


----------------------
02:01
BRIDGE
*******
G|--------|--------|--------|--------|--------|--------|--------|------------|
D|--------|--------|--------|--------|--------|--------|--------|--------0-2-|
A|--------|--------|--------|--------|--------|--------|-3--3-3-|-3--3-3-----|
E|-6--6-6-|-6--6-6-|-6--6-6-|-6--6-6-|-4--4-4-|-4--4-4-|--------|------------|

01:16
G|--------|--------|--------|--------|--------|--------|--------|--------|
D|-3--3-3-|-3--3-3-|-3--3-3-|-3--3-3-|-1--1-1-|-1--1-1-|--------|--------|
A|--------|--------|--------|--------|--------|--------|-3--3-3-|-3--3-3-|
E|--------|--------|--------|--------|--------|--------|--------|--------|


----------------------
02:15
VERSE 3
********
G|--------|--------|--------|--------|--------|--------|
D|--------|--------|--------|--------|--------|--------|
A|-5--5-5-|--------|-5--5-5-|--------|-5--5-5-|--------|
E|--------|-3--3-3-|--------|-3--3-3-|--------|-3--3-3-|


----------------------
02:25
CHORUS
*******
G|--------|--------|--------|--------|
D|--------|--------|--------|--------|
A|-5--5-5-|--------|-5--5-5-|--------|
E|--------|-3--3-3-|--------|-3--3-3-|


G|--------|--------|--------|----------|
D|--------|--------|--------|----------|
A|-5--5-5-|--------|-5--5-5-|----------|
E|--------|-3--3-3-|--------|-3-3-3-3-3|


----------------------
02:39
OUTRO
******                            Fade Out........................
G|----------------------------------------------------------------|
D|----------------------------------------------------------------|
A|---------3--3-3----------3--3-3----------3--3-3----------3--3-3-|
E|-3--3-3----------3--3-3----------3--3-3----------3--3-3---------|



ENJOY...........

Almost there ...

Sign in to get your own page with links to favourite songs and more. You are just one click away...

Login with Facebook Login with Google