Log in

One click and you are in

Login with Facebook Login with Google

Why sign up and log in

Guitar Tabs Explorer
Christian Petzold chords for Minuet in g major ukulele

Minuet In G Major Ukulele chords by Christian Petzold

Christian Petzold chords for Minuet in g major ukulele

Guitar chords

Tuning: G C E A (G C E A)

A|5-----0-2-3|5------------|7---3-5-7-9-|10----------|
E|-----------|---------3---|------------|--------3---|
C|-----------|---------2---|0-----------|7-------2---|
g|0---0------|4---0--------|------------|----0-------|

A|3---5-3-2-0-|2---3-2-0---|------0-2---|2---0------|
E|------------|3-----------|2---------3-|-----0-2---|
C|------------|2-----------|2-------2---|2--2-----2-|
g|2-----------|0---------0-|2---0-------|-----------|

A|5-----0-2-3|5------------|7---3-5-7-9-|10----------|
E|-----------|---------3---|------------|--------3---|
C|-----------|---------2---|0-----------|7-------2---|
g|0---0------|4---0--------|------------|----0-------|

A|3---5-3-2-0-|2---3-2-0---|0---2-0-----|----2---2---|
E|------------|3-----------|2---------2-|3---3---3---|
C|------------|2-----------|0-----------|----2---2---|
g|2-----------|0---------0-|2-------0---|----0---0---|

A|14--10-12-14-10-|12--5-7-9-5-|10--7-9-10-5-|4---2-4-0---|
E|----------------|------------|-------------|------------|
C|----------------|14----------|7------------|------------|
g|0---------------|------------|-------------|2-----------|

A|0-2-4-5-7-9--|10--9---7---|10--0---4---|5---5---5---|
E|0-3-5-7-9-10-|12--10--9---|9-----------|----2---2---|
C|-------------|------------|------------|2---2---2---|
g|-------------|------------|0-----------|----2---2---|

A|5----------|7-----------|5---3---2---|0-------0---|
E|------2----|------2-----|------------|----2---2---|
C|-----------|0-----------|------------|--------0---|
g|0---0---0--|----0---0---|4---2---0---|--0---0-2---|

A|--------0-2-|3---2---0---|2-5---------|----2---2---|
E|--0-2-3-----|--------2---|--------2---|3---3---3---|
C|2-----------|----2---0---|--------0---|----2---2---|
g|------------|2-------2---|----0---2---|----0---0---|

Almost there ...

Sign in to get your own page with links to favourite songs and more. You are just one click away...

Login with Facebook Login with Google