Log in

One click and you are in

Login with Facebook Login with Google

Why sign up and log in

Guitar Tabs Explorer
Christian Lee Hutson guitar tabs for Atheist

Guitar tabs with lyrics

Tuning: Open A chord diagramD MajorD (A chord diagramD MajorD A chord diagramA majorA A chord diagramD MajorD A chord diagramF#F# A chord diagramA majorA A chord diagramD MajorD)

It's in Open Eb, I tune to Open A chord diagramD MajorD and capo at the first fret.   There are a lot of ghost notes and
supporting notes I didn't bother to tab - once you get the shapes and the tuning it'll all make sense.

Intro:

d |---------------------7-------------2-4----------0----------------------------------|
A chord diagramA majorA |------------------10---10--9-7/5---2---/7-5---0----------0-------------------------|
F#|---7------5------------------------2--------5--------------------------------------|
A chord diagramD MajorD |-----0----0----------------------------------------0-------0-----------------------|
A chord diagramA majorA |------------------------------------------------------0----------------------------|
A chord diagramD MajorD |---4---4----5----/8--------0-------2---/5-------0----------------------------------|


Verse:
d |---------------------------7-7--7--7--7-7----------------------------------0---7h5--5-5-------------------|
A chord diagramA majorA |------------7-9-9---7-5----7-7--7--7--7-7-------9-9-9-9-10-12-12-----10-12-----5----5-----9\7h5-----------|
F#|----8-8-8-8-------5---5--8-8-7--8--7--8-7--8----8-8-8-8-10-12-12---12----------6h5--5---------------------|
A chord diagramD MajorD |-0----------------5---5----7-7--9--7--9-7-----0------------------10------------5----5---5-------5---------|
A chord diagramA majorA |-0----------------5---5----7-7--7--7--7-7-----0--------------------------------5----5-5-------------------|
A chord diagramD MajorD |-0--------0-------5---5----7-7--7--7--7-7-----0----------------0-0-------------5----5-5---5---------------|
       On our inital...                            Katie leaned...

d |---------------------------7-7--7-7-7-7------------------------------------0--7h5-5-----------------------|
A chord diagramA majorA |------------7-9-9---7-5----7-7--7-7-7-7-------9-9-9-9-10-12-12-------10-12----5---5-9-7-------------------|
F#|---8-8-8-8--------5---5--8-8-7--8-7-8-7--8----8-8-8-8-10-12-12-----12---------6h5-5-----------------------|
A chord diagramD MajorD |-0 ---------------5---5----7-7--9-7-9-7----0---------------------10-----------5---5-----------------------|
A chord diagramA majorA |-0----------------5---5----7-7--7-7-7-7----0----------------------------------5---5-5---------------------|
A chord diagramD MajorD |-0-------0--------5---5----7-7--7-7-7-7----0-------------------0-0------------5---5-5---------------------|
      To catch a glimpse...                     She says I hated...


Pre-Chorus:
d |---0-0-0-0-2---2---2/5-----7----------------7-----------------7-------7--7h5--5-----0---------------------|
A chord diagramA majorA |---5-5-4-0-2---2---2/5-9-5-7---------7-9-10-------9-9\7-5---5---5---5----5----5--9--10--------------------|
F#|---0-0-0-0-3---2---2/5-----7-----7-8----------------------6-------6------6h5--5-----8---------------------|
A chord diagramD MajorD |---4-4-4-4-2---2---2/5-----7-7-9----------------0-------0----------------5----5-----0---------------------|
A chord diagramA majorA |-2---------2---2---2/5-----7------------------0-----0--------------------5----5-----10--------------------|
A chord diagramD MajorD |-----------2---2---2/5-----7------------------0-----0--------------------5----5-----8---------------------|
      Shirts in the...                         Quarters in the mason jar...

d |-------0------0-0---5----0--0-0--------------------------------------------------------|
A chord diagramA majorA |--10\9---0----0-0---5-9--7--0-0--------------------------------------------------------|
F#|-------------/3-1---5----8--0-0---------3-1-3-5-3-1-0----------------------------------|
A chord diagramD MajorD |-------------/4-2---5----0--------------4-2-4-5-4-2-0----------------------------------|
A chord diagramA majorA |--------------------5----------0-------------------------------------------------------|
A chord diagramD MajorD |--0-----------------5----8-----0-------------------------------------------------------|
    If we keep this up girls...             I don't remember getting...


Chorus:
d |--7--5---5--4------0-------------0-----------------------------------------------|
A chord diagramA majorA |--5--5---5--0---7--5-4-4\2-0-----2-----------------------------------------------|
F#|--6--5---4--3---4--0-------------1------3-1-3-5-3-1-0----------------------------|
A chord diagramD MajorD |--5--5---0--0---4--4-------------0------4-2-4-5-4-2-0----------------------------|
A chord diagramA majorA |--5--5------0---4--2-------------2-----------------------------------------------|
A chord diagramD MajorD |--5--5---5--0---4----------------0-----------------------------------------------|
     Older but I'm slowing        down     I don't know if I'm gonna

d |--7---5---5----4----2-4----------0--------------------------------------------------|
A chord diagramA majorA |--5---5---5----0----2---/7-5---0----------------------------------------------------|
F#|--6---5---4----3----2--------5------------------------------------------------------|
A chord diagramD MajorD |--5---5---0-------------------------------------------------------------------------|
A chord diagramA majorA |--5---5--------0--------------------------------------------------------------------|
A chord diagramD MajorD |--5---5---5----0----2---/5----------------------------------------------------------|
   Miss you where I'm going        now


************************************

| /  Slide up
| h  Hammer-on
| \  Slide down


************************************

Other versions of Atheist

Atheist ukuleleChords

↓ Add and view comments below ↓

What do you think about this song and these tabs?

Add your comments, questions, rant or a thumbs up below.

Almost there ...

Sign in to get your own page with links to favourite songs and more. You are just one click away...

Login with Facebook Login with Google