Log in

One click and you are in

Login with Facebook Login with Google

Why sign up and log in

Guitar Tabs Explorer
Frederic Chopin tabs for Nocturne op 9 no 2 (Ver. 2)

Nocturne Op 9 No 2 tab by Frederic Chopin (Ver. 2)

Frederic Chopin tabs for Nocturne op 9 no 2 (Ver. 2)

Guitar tabs

Lead (Right Hand)


     Q    Q    Q        Q     Q     Q       Q     Q     Q
A chord diagramE MajorE||------------6----|--15-----L-----L----|-------13----15----|
A chord diagramBB||-----------------|--------------------|-------------------|
A chord diagramG+G||-----------------|--------------------|-------------------|
A chord diagramD MajorD||-----------------|--------------------|-------------------|
A chord diagramA augmentedA||-----------------|--------------------|-------------------|
A chord diagramE MajorE||-----------------|--------------------|-------------------|
                                                           |-3-|
   Q     Q     Q        Q     Q    Q        Q     Q    S S S S S
--13-----L-----L----|--11-----L----6----|--15-----L----7-8-7-6-7-|
--------------------|-------------------|------------------------|
--------------------|-------------------|------------------------|
--------------------|-------------------|------------------------|
--------------------|-------------------|------------------------|
--------------------|-------------------|------------------------|


   Q     Q     Q        Q     Q     Q        Q    Q     Q
--20-----L----15----|--18-----L-----L----|--16---------15----|
--------------------|--------------------|-------------------|
--------------------|--------------------|-------------------|
--------------------|--------------------|-------------------|
--------------------|--------------------|-------------------|
--------------------|--------------------|-------------------|


   Q    Q    Q        Q    Q     Q        Q    Q    Q       Q    Q    Q
--13--------------|--15---------10----|--11--------------|--8--------------|
------------------|-------------------|------------------|-----------------|
------------------|-------------------|------------------|-----------------|
------------------|-------------------|------------------|-----------------|
------------------|-------------------|------------------|-----------------|
------------------|-------------------|------------------|-----------------|

  Q     Q     Q        A chord diagramE MajorE   A chord diagramE MajorE   A chord diagramE MajorE   A chord diagramE MajorE  A chord diagramE MajorE   A chord diagramE MajorE      Q     Q     Q
--6----22----20----|--18--16--15--16--8--10--|--11-----L-----L----|
-------------------|-------------------------|--------------------|
-------------------|-------------------------|--------------------|
-------------------|-------------------------|--------------------|
-------------------|-------------------------|--------------------|
-------------------|-------------------------|--------------------|


                                                |--3--|
  Q    Q    Q        Q    Q    Q        A chord diagramE MajorE   A chord diagramE MajorE   S  S  S  A chord diagramE MajorE   A chord diagramE MajorE   A chord diagramE MajorE
------------6----|--15--------------|--13--15--13-15-13-12--13--15--|
-----------------|------------------|-------------------------------|
-----------------|------------------|-------------------------------|
-----------------|------------------|-------------------------------|
-----------------|------------------|-------------------------------|
-----------------|------------------|-------------------------------|


                               |--3--|
   Q     Q     Q       A chord diagramE MajorE   A chord diagramE MajorE   S  S  S  A chord diagramE MajorE   A chord diagramE MajorE   A chord diagramE MajorE      A chord diagramE MajorE  A chord diagramE MajorE  A chord diagramE MajorE  A chord diagramE MajorE  A chord diagramE MajorE   A chord diagramE MajorE
--13-----L----11----|-----13--11-13-11-10--11--13--|--15--7--8--9--8--13--|
--------------------|------------------------------|----------------------|
--------------------|------------------------------|----------------------|
--------------------|------------------------------|----------------------|
--------------------|------------------------------|----------------------|
--------------------|------------------------------|----------------------|


   A chord diagramE MajorE   A chord diagramE MajorE   A chord diagramE MajorE   A chord diagramE MajorE   A chord diagramE MajorE   A chord diagramE MajorE      Q     Q     Q        Q     Q     Q
--12--16--15--21--20--15--|--18-----L-----L----|--16-----L----15----|
--------------------------|--------------------|--------------------|
--------------------------|--------------------|--------------------|
--------------------------|--------------------|--------------------|
--------------------------|--------------------|--------------------|
--------------------------|--------------------|--------------------|


   |---3---|   |-3-|  |--3--|
   A chord diagramE MajorE   A chord diagramE MajorE   A chord diagramE MajorE   A chord diagramE MajorE   S  S  S  S  S  S  S  T  T     Q     Q     Q
--13--15--13--15--13-15-13-15-13-15-13-12-13-|--15----15----10----|
---------------------------------------------|--------------------|
---------------------------------------------|--------------------|
---------------------------------------------|--------------------|
---------------------------------------------|--------------------|
---------------------------------------------|--------------------|


   Q     Q     Q       Q    Q    Q       Q     Q     Q
--11-----L-----L----|--8----L----L----|--6----22----20----|
--------------------|-----------------|-------------------|
--------------------|-----------------|-------------------|
--------------------|-----------------|-------------------|
--------------------|-----------------|-------------------|
--------------------|-----------------|-------------------|


   A chord diagramE MajorE   A chord diagramE MajorE   A chord diagramE MajorE   A chord diagramE MajorE     A chord diagramE MajorE   A chord diagramE MajorE      Q    Q     Q        Q    Q     Q
--18--16--15--16--16g8--10--|--11----6----15----|--11----6----15----|
----------------------------|-------------------|-------------------|
----------------------------|-------------------|-------------------|
----------------------------|-------------------|-------------------|
----------------------------|-------------------|-------------------|
----------------------------|-------------------|-------------------|


   Q     Q     Q        Q    Q    Q       Q    Q    Q       H.
--11-----L----23----|---L--------------|-----------------|---------------||
---8-----L----20----|---L--------------|--4--------------|---------------||
--------------------|------------------|--0--------------|---------------||
--------------------|------------------|-----------------|---------------||
--------------------|------------------|-----------------|---------------||
--------------------|------------------|-----------------|---------------||




Rhythm (Left Hand_


*Notice* Low A chord diagramE MajorE sting is dropped to A chord diagramD#D# (A chord diagramEb MajorEb)


      H.              Q    Q    Q       Q    Q    Q       Q    Q    Q
A chord diagramE MajorE ||---------------|-----------------|------------4----|-----------------|
A chord diagramBB ||---------------|------------8----|-----------------|------------8----|
A chord diagramG+G ||---------------|-------8---------|-------7----4----|-------8---------|
A chord diagramD MajorD ||---------------|-------5----8----|-------6---------|-------5----8----|
A chord diagramA augmentedA ||---------------|--6--------------|--6--------------|--6--------------|
A chord diagramD#D#||---------------|-----------------|-----------------|-----------------|


  Q    Q    Q       Q    Q    Q       Q    Q    Q       Q    Q    Q
-----------------|-------0----3----|-------0----6----|-----------------|
------------8----|-----------------|-----------------|-------2----5----|
-------8---------|-------0----3----|-------0----5----|------------3----|
-------5----8----|-----------------|-----------------|-------3---------|
--5--------------|--3--------------|--3--------------|-----------------|
-----------------|-----------------|-----------------|--2--------------|


  Q    Q    Q       Q    Q    Q       Q    Q    Q       Q    Q    Q
------------1----|------------4----|-------1----3----|------------3----|
-------1---------|-------3---------|------------3----|-------4----1----|
------------1----|------------3----|-------0---------|-----------------|
-------3---------|-------3---------|-----------------|-------5---------|
-----------------|--1--------------|--2--------------|--3--------------|
--2--------------|-----------------|-----------------|-----------------|


  Q    Q    Q       Q    Q    Q       Q    Q    Q       Q    Q    Q
------------2----|------------4----|------------4----|-----------------|
-------4----1----|-------4----4----|-------3---------|------------8----|
-----------------|------------3----|------------3----|-------8---------|
-------4---------|-------3---------|-------3---------|-------5----8----|
--0--------------|--1--------------|--1--------------|-----------------|
-----------------|-----------------|-----------------|--0--------------|


  Q    Q    Q       Q    Q    Q       Q    Q    Q       Q    Q    Q
-----------------|-----------------|------------4----|-----------------|
------------8----|------------8----|-----------------|------------8----|
-------8---------|-------8---------|-------7----4----|-------8---------|
-------5----8----|-------5----8----|-------6---------|-------5----8----|
--6--------------|--6--------------|--6--------------|--6--------------|
-----------------|-----------------|-----------------|-----------------|


  Q    Q    Q       Q    Q    Q       Q    Q    Q       Q    Q    Q
-----------------|-------0----3----|-------0----6----|-----------------|
------------8----|-----------------|-----------------|-------2----5----|
-------8---------|-------0----3----|-------0----5----|------------3----|
-------5----8----|-----------------|-----------------|-------3---------|
--5--------------|--3--------------|--3--------------|-----------------|
-----------------|-----------------|-----------------|--2--------------|


  Q    Q    Q       Q    Q    Q       Q    Q    Q       Q    Q    Q
------------1----|------------4----|-------1----3----|------------3----|
-------1---------|-------3---------|------------3----|-------4----1----|
------------1----|------------3----|-------0---------|-----------------|
-------3---------|-------3---------|-----------------|-------5---------|
-----------------|--1--------------|--2--------------|--3--------------|
--2--------------|-----------------|-----------------|-----------------|


  Q    Q    Q       Q    Q    Q       Q    Q    Q       Q    Q    Q
------------2----|------------4----|------------4----|-----------------|
-------4----1----|-------4----4----|-------3---------|-----------------|
-----------------|------------3----|------------3----|-------3---------|
-------4---------|-------3---------|-------3---------|-----------------|
--0--------------|--1--------------|--1--------------|------------1----|
-----------------|-----------------|-----------------|--0--------------|


  Q    Q    Q       Q    Q    Q       Q    H           Q    Q    Q
-----------------|------------6----|--L-------------|-----------------|
-----------------|------------4----|--L-------------|-----------------|
-----------------|-----------------|----------------|-----------------|
-------8---------|-----------------|----------------|-----------------|
--6--------------|--6----L---------|----------------|--1--------------|
------------7----|-----------------|----------------|--0--------------|


  H.
---------------||
---------------||
---------------||
---------------||
---------------||
---------------||


************************************
| L   Let Ring
| /   slide up
| \   slide down
| h   hammer-on
| p   pull-off
| ~   vibrato
| +   harmonic
| x   Mute note
| b   Bend
| pb  Pre-bend
| br  Bend release
| pbr Pre-bend release
| brb Bend release bend

************************************

Other versions of Nocturne Op 9 No 2

Nocturne op 9 no 2Tabs

Almost there ...

Sign in to get your own page with links to favourite songs and more. You are just one click away...

Login with Facebook Login with Google