Log in

One click and you are in

Login with Facebook Login with Google

Why sign up and log in

Guitar Tabs Explorer
Chloe Moriondo bass tabs for I want to be with you

I Want To Be With You bass tab by Chloe Moriondo

Chloe Moriondo bass tabs for I want to be with you

Bass tabs

Tuning: Standard (E A D G)


Intro:

G|----------------------------------------------------------------|
D|----------------------------------------------------------------|
A|--------------------------------4-4-4-4-4-4-4-2-2-2-2-2-2-2-2-2-|
E|0-0-0-0-0-0-0-0-0-0-0-0-0-0-0-0---------------------------------|
 1 + 2 + 3 + 4 + 5 + 6 + 7 + 8 + 1 + 2 + 3 + 4 + 5 + 6 + 7 + 8 + etc...

Verse 1:
     Swimming in my t-shirt (etc)...
G|----------------------------------------------------------------|
D|----------------------------------------------------------------|
A|--------------------------------4-4-4-4-4-4-4-2-2-2-2-2-2-2-2-2-|
E|0-0-0-0-0-0-0-0-0-0-0-0-0-0-0-0---------------------------------|

     I see you in the water (etc)...
G|----------------------------------------------------------------|
D|----------------------------------------------------------------|
A|--------------------------------4-4-4-4-4-4-4-2-2-2-2-2-2-2-2-2-|
E|0-0-0-0-0-0-0-0-0-0-0-0-0-0-0-0---------------------------------|


Pre-Chorus:
     I can't take it (etc)...
G|----------------------------------------------------------------|
D|----------------------------------------------------------------|
A|--------------------------------4-4-4-4-4-4-4-2-2-2-2-2-2-2-2-2-|
E|0-0-0-0-0-0-0-0-0-0-0-0-0-0-0-0---------------------------------|

     I can't fake this (etc)...
G|----------------------------------------------------------------|
D|----------------------------------------------------------------|
A|--------------------------------4-4-4-4-4-4-4-2-2-2-2-2-2-2-2-2-|
E|0-0-0-0-0-0-0-0-0-0-0-0-0-0-0-0---------------------------------|


Instrumental:
 (no lyrics but it's where the drums come in)
G|----------------------------------------------------------------|
D|----------------------------------------------------------------|
A|----------------------------------------------------------------|
E|0-0-0-0-0-0-0-0-0-0-0-0-0-0-0-0-0-0-0-0-0-0-0-0-0-0-0-0-0-0-0-0-|


Verse 2:
     I know my shit's weird (etc)...
G|----------------------------------------------------------------|
D|----------------------------------------------------------------|
A|--------------------------------4-4-4-4-4-4-4-2-2-2-2-2-2-2-2-2-|
E|0-0-0-0-0-0-0-0-0-0-0-0-0-0-0-0---------------------------------|

     Give me a chance (etc)...            (I wanna be with...)
G|----------------------------------------------------------------|
D|----------------------------------------------------------------|
A|--------------------------------4-4-4-4-4-4-4-2-2-2-2-2---------|
E|0-0-0-0-0-0-0-0-0-0-0-0-0-0-0-0---------------------------------|


Chorus:
 ...you (etc)...
G|----------------------------------------------------------------|
D|----------------------------------------------------------------|
A|--------------------------------4-4-4-4-4-4-4-2-2-2-2-2-2-2-2-2-|
E|0-0-0-0-0-0-0-0-0-0-0-0-0-0-0-0---------------------------------|

G|----------------------------------------------------------------|
D|----------------------------------------------------------------|
A|--------------------------------4-4-4-4-4-4-4-2-2-2-2-2-2-2-2-2-|
E|0-0-0-0-0-0-0-0-0-0-0-0-0-0-0-0---------------------------------|


Chorus pt ii:

G|----------------------------------------------------------------|
D|----------------------------------------------------------------|
A|0-0-0-0-0-0-0-0-0-0-0-0-0-0-0-0-4-4-4-4-4-4-4-------------------|
E|----------------------------------------------0-0-0-0-0-0-0-0-0-|

G|----------------------------------------------------------------|
D|----------------------------------------------------------------|
A|0-0-0-0-0-0-0-0-0-0-0-0-0-0-0-0-4-4-4-4-4-4-4-------------------|
E|----------------------------------------------0-0-0-0-0-0-0-0-0-|


Verse 3:

G|----------------------------------------------------------------|
D|----------------------------------------------------------------|
A|--------------------------------4-4-4-4-4-4-4-2-2-2-2-2-2-2-2-2-|
E|0-0-0-0-0-0-0-0-0-0-0-0-0-0-0-0---------------------------------|

     You shut my mouth (etc)...
G|----------------------------------------------------------------|
D|----------------------------------------------------------------|
A|--------------------------------4-4-4-4-4-4-4-2-2-2-2-2-2-2-2-2-|
E|0-0-0-0-0-0-0-0-0-0-0-0-0-0-0-0---------------------------------|
 So I'll get over my head (etc)...
G|----------------------------------------------------------------|
D|----------------------------------------------------------------|
A|--------------------------------4-4-4-4-4-4-4-2-2-2-2-2-2-2-2-2-|
E|0-0-0-0-0-0-0-0-0-0-0-0-0-0-0-0---------------------------------|
     (You know I want you) (etc)...
G|----------------------------------------------------------------|
D|----------------------------------------------------------------|
A|--------------------------------4-4-4-4-4-4-4-2-2-2-2-2-2-2-2-2-|
E|0-0-0-0-0-0-0-0-0-0-0-0-0-0-0-0---------------------------------|

     You know that you're the one          (I wanna be with...)
G|----------------------------------------------------------------|
D|----------------------------------------------------------------|
A|--------------------------------4-4-4-4-4-4-4-2-2-2-2-2---------|
E|0-0-0-0-0-0-0-0-0-0-0-0-0-0-0-0---------------------------------|


Chorus:
 ...you (etc)...
G|----------------------------------------------------------------|
D|----------------------------------------------------------------|
A|--------------------------------4-4-4-4-4-4-4-2-2-2-2-2-2-2-2-2-|
E|0-0-0-0-0-0-0-0-0-0-0-0-0-0-0-0---------------------------------|

G|----------------------------------------------------------------|
D|----------------------------------------------------------------|
A|--------------------------------4-4-4-4-4-4-4-2-2-2-2-2-2-2-2-2-|
E|0-0-0-0-0-0-0-0-0-0-0-0-0-0-0-0-0-0-0-0-0-0-0-0-0-0-0-0-0-0-0-0---------------------------------|


Chorus pt ii:

G|----------------------------------------------------------------|
D|----------------------------------------------------------------|
A|0-0-0-0-0-0-0-0-0-0-0-0-0-0-0-0-4-4-4-4-4-4-4-------------------|
E|----------------------------------------------0-0-0-0-0-0-0-0-0-|

G|----------------------------------------------------------------|
D|----------------------------------------------------------------|
A|0-0-0-0-0-0-0-0-0-0-0-0-0-0-0-0-4-4-4-4-4-4-4-------------------|
E|----------------------------------------------0-0-0-0-0-0-0-0-0-|


[Outro}

G|----------------------------------------------------------------|
D|----------------------------------------------------------------|
A|--------------------------------4-4-4-4-4-4-4-2-2-2-2-2---------|
E|0-0-0-0-0-0-0-0-0-0-0-0-0-0-0-0---------------------------------|

Almost there ...

Sign in to get your own page with links to favourite songs and more. You are just one click away...

Login with Facebook Login with Google