Log in

One click and you are in

Login with Facebook Login with Google

Why sign up and log in

Guitar Tabs Explorer
Chloe Moriondo bass tabs for I eat boys

Bass tabs

Tuning: Standard (E A D G)

(same riff repeats through whole song)


Intro:

G|---------------------------|
D|---------------------------|
A|-5---5---------------------|  x3
E|---------3-3---0---0---3-3-|

G|-----------------|
D|-----------------|
A|-5---5-----------|
E|---------3-3---0-|


Chorus:

G|---------------------------|
D|---------------------------|
A|-5---5---------------------|  x4
E|---------3-3---0---0---3-3-|


Post-Chorus:

G|---------------------------|
D|---------------------------|
A|-5---5---------------------|  x4
E|---------3-3---0---0---3-3-|


Verse:

G|---------------------------|
D|---------------------------|
A|-5---5---------------------|  x3
E|---------3-3---0---0---3-3-|

G|-----------------|
D|-----------------|
A|-5---5-----------|
E|---------3-3---0-|


Chorus:

G|---------------------------|
D|---------------------------|
A|-5---5---------------------|  x4
E|---------3-3---0---0---3-3-|


Post-Chorus:

G|---------------------------|
D|---------------------------|
A|-5---5---------------------|  x4
E|---------3-3---0---0---3-3-|

Almost there ...

Sign in to get your own page with links to favourite songs and more. You are just one click away...

Login with Facebook Login with Google