Log in

One click and you are in

Login with Facebook Login with Google

Why sign up and log in

Guitar Tabs Explorer
Childish Gambino bass tabs for The night me and your mama met

The Night Me And Your Mama Met bass tab by Childish Gambino

Childish Gambino bass tabs for The night me and your mama met

Bass tabs

Tuning: Standard (E A D G)

2:26:

G|---------------------------------------------------------------------------|
D|---------------------------------------------------------------------------|
A|---------------------------------------------------------------------------|
E|5-----0-5-7------4-----0-4-2-----5-----0-5-7-----9----x-9-9-----7-7--------|

G|---------------------------------------------------------------------------|
D|---------------------------------------------------------------------------|
A|---------------------------------------------------------------------------|
E|5-----0-5-7----x-5-4-----0-4-2----x-2/5-----0-5-7---x-9----x-9-9-----9-9---|

G|---------------------------------------------------------------------------|
D|---------------------------------------------------------------------------|
A|--------10-----------------------------------------------------------------|
E|8----------8-------x-8--7----7----7----7----7----7----7----7---------------|


************************************

| x  Dead note
| /  Slide up

************************************

ⓘ Bass guitar tab for 'The Night Me And Your Mama Met' by Childish Gambino, Donald Glover, a male hip-hop artist from Los Angeles, California, USA. Childish Gambino was born in 1983. Childish Gambino is known for his gritty urban/r&b music.

Almost there ...

Sign in to get your own page with links to favourite songs and more. You are just one click away...

Login with Facebook Login with Google