Log in

One click and you are in

Login with Facebook Login with Google

Why sign up and log in

Guitar Tabs Explorer
Childish Gambino bass tabs for Redbone

Bass tabs

Intro

G|-----3-----------|-----------------|-----------------|-----------------|
D|-----------------|-----------------|-----------------|-----------------|
A|-1-----------1---|-3-------3---5---|-------------0---|-5---\---3---\---|
E|---------1-------|-----3-----------|-----------------|-----------------|
  1 + 2 + 3 + 4 +  1 + 2 + 3 + 4 +  1 + 2 + 3 + 4 +  1 + 2 + 3 + 4 +

G|-----3-----------|-----------------|-----------------|-----------------|
D|-----------------|-----------------|-----------------|-----------------|
A|-1-----------1---|-3-------3---5---|-------------0---|-5---\---3---\---|
E|---------1-------|-----3-----------|-----------------|-----------------|
  1 + 2 + 3 + 4 +  1 + 2 + 3 + 4 +  1 + 2 + 3 + 4 +  1 + 2 + 3 + 4 +

G|-----3-----------|-----------------|-----------------|-----------------|
D|-----------------|-----------------|-----------------|-----------------|
A|-1-----------1---|-3-------3---5---|-------------0---|-5---\---3---\---|
E|---------1-------|-----3-----------|-----------------|-----------------|
  1 + 2 + 3 + 4 +  1 + 2 + 3 + 4 +  1 + 2 + 3 + 4 +  1 + 2 + 3 + 4 +

G|-----3-----------|-----------------|-----------------|-----------------|
D|-----------------|-----------------|-----------------|-----------------|
A|-1-----------1---|-3-------3---5---|-----------------|---------0-------|
E|---------1-------|-----3-----------|-----------------|-----------------|
  1 + 2 + 3 + 4 +  1 + 2 + 3 + 4 +  1 + 2 + 3 + 4 +  1 + 2 + 3 + 4 +


 Verse

G|-----------------|-----------------|-----------------|-----------------|
D|-----------------|-----------------|-----------------|-----------------|
A|-1-----------1---|-3-------3---5---|-----------------|-5-h-3---3-h-1---|
E|---------1-------|-----3-----------|-----------------|-----------------|
  1 + 2 + 3 + 4 +  1 + 2 + 3 + 4 +  1 + 2 + 3 + 4 +  1 + 2 + 3 + 4 +

G|-----------------|-----------------|-----------------|-----------------|
D|-----------------|-----------------|-----------------|-----------------|
A|-1-----------1---|-3-------3---5---|-----------------|-5-h-3---3-h-1---|
E|---------1-------|-----3-----------|-----------------|-----------------|
  1 + 2 + 3 + 4 +  1 + 2 + 3 + 4 +  1 + 2 + 3 + 4 +  1 + 2 + 3 + 4 +

G|-----------------|-----------------|-----------------|-----------------|
D|-----------------|-----------------|-----------------|-----------------|
A|-1-----------1---|-3-------3---5---|-----------------|-5-h-3---3-h-1---|
E|---------1-------|-----3-----------|-----------------|-----------------|
  1 + 2 + 3 + 4 +  1 + 2 + 3 + 4 +  1 + 2 + 3 + 4 +  1 + 2 + 3 + 4 +

G|-----------------|-----------------|-----------------|-----------------|
D|-----------------|-----------------|-----------------|-----------------|
A|-1-----------1---|-3-------3---5---|-----------------|-----0-----------|
E|---------1-------|-----3-----------|-----------------|-----------------|
  1 + 2 + 3 + 4 +  1 + 2 + 3 + 4 +  1 + 2 + 3 + 4 +  1 + 2 + 3 + 4 +

G|-----------------|-----------------|-----------------|-----------------|
D|-----------------|-----------------|-----------------|-----------------|
A|-1-----------1---|-3-------3---5---|-----------------|-5-h-3---3-h-1---|
E|---------1-------|-----3-----------|-----------------|-----------------|
  1 + 2 + 3 + 4 +  1 + 2 + 3 + 4 +  1 + 2 + 3 + 4 +  1 + 2 + 3 + 4 +

G|-----------------|-----------------|-----------------|-----------------|
D|-----------------|-----------------|-----------------|-----------------|
A|-1-----------1---|-3-------3---5---|-----------------|-5-h-3---3-h-1---|
E|---------1-------|-----3-----------|-----------------|-----------------|
  1 + 2 + 3 + 4 +  1 + 2 + 3 + 4 +  1 + 2 + 3 + 4 +  1 + 2 + 3 + 4 +

G|-----------------|-----------------|-----------------|-----------------|
D|-----------------|-----------------|-----------------|-----------------|
A|-1-----------1---|-3-------3---5---|-----------------|-5-h-3---3-h-1---|
E|---------1-------|-----3-----------|-----------------|-----------------|
  1 + 2 + 3 + 4 +  1 + 2 + 3 + 4 +  1 + 2 + 3 + 4 +  1 + 2 + 3 + 4 +

G|-----------------|-----------------|-----------------|-----------------|
D|-----------------|-----------------|-----------------|-----------------|
A|-----------------|-----------------|-----------------|-----------------|
E|-----------------|-----------------|-----------------|-----------------|
  1 + 2 + 3 + 4 +  1 + 2 + 3 + 4 +  1 + 2 + 3 + 4 +  1 + 2 + 3 + 4 +

 Solo/Outro Groove

G|-----------------|-----------------|-----------------|-----------------|
D|-----------------|-----------------|-----------------|-----5-------3---|
A|-5---5-------5---|-5---------------|-----------------|-----------------|
E|-----------------|-----------------|-3---3-------3---|-3-------1-------|
  1 + 2 + 3 + 4 +  1 + 2 + 3 + 4 +  1 + 2 + 3 + 4 +  1 + 2 + 3 + 4 +

G|-----------------|-----------------|-----------------|-----------------|
D|-----------------|-----------------|-----------------|-----------------|
A|-----------------|-------1h4-------|-5---5-------5---|-5---------------|
E|-0---0-------0---|-0---------------|-----------------|-----------------|
  1 + 2 + 3 + 4 +  1 + 2 + 3 + 4 +  1 + 2 + 3 + 4 +  1 + 2 + 3 + 4 +

G|-----------------|-----------------|-----------------|-----------------|
D|-----------------|-----5-------3---|-----------------|-----------------|
A|-----------------|-----------------|-----------------|-0---------------|
E|-3---3-------3---|-3-------1-------|-0---0-------0---|-----------------|
  1 + 2 + 3 + 4 +  1 + 2 + 3 + 4 +  1 + 2 + 3 + 4 +  1 + 2 + 3 + 4 +


 Chorus

G|-----3-----------|-----------------|-----------------|-----------------|
D|-----------------|-----------------|-----------------|-----------------|
A|-1-----------1---|-3-------3---5---|-------------0---|-3-------0-------|
E|---------1-------|-----3-----------|-----------------|-----------------|
  1 + 2 + 3 + 4 +  1 + 2 + 3 + 4 +  1 + 2 + 3 + 4 +  1 + 2 + 3 + 4 +

G|-----------------|-----------------|-----------------|-----------------|
D|-----------------|-----------------|-----------------|-----------------|
A|---------0-------|-3---0---0---5---|-------------0---|-5---\---3---\---|
E|-3---------------|-----------------|-----------------|-----------------|
  1 + 2 + 3 + 4 +  1 + 2 + 3 + 4 +  1 + 2 + 3 + 4 +  1 + 2 + 3 + 4 +

G|-----3-----------|-----------------|-----------------|-----------------|
D|-----------------|-----------------|-----------------|-----------------|
A|-1-----------1---|-3-------3---5---|-------------0---|-5---\---3---\---|
E|---------1-------|-----3-----------|-----------------|-----------------|
  1 + 2 + 3 + 4 +  1 + 2 + 3 + 4 +  1 + 2 + 3 + 4 +  1 + 2 + 3 + 4 +

G|-----3-----------|-----------------|-----------------|-----------------|
D|-----------------|-----------------|-----------------|-----------------|
A|-1-----------1---|-----------------|-----------------|-----------------|
E|---------1-------|-----------------|-----------------|-----------------|
  1 + 2 + 3 + 4 +  1 + 2 + 3 + 4 +  1 + 2 + 3 + 4 +  1 + 2 + 3 + 4 +


 Verse

G|-----------------|-----------------|-----------------|-----------------|
D|-----------------|-----------------|-----------------|-----------------|
A|-1-----------1---|-3-------3---5---|-----------------|-5-h-3---3-h-1---|
E|---------1-------|-----3-----------|-----------------|-----------------|
  1 + 2 + 3 + 4 +  1 + 2 + 3 + 4 +  1 + 2 + 3 + 4 +  1 + 2 + 3 + 4 +

G|-----------------|-----------------|-----------------|-----------------|
D|-----------------|-----------------|-----------------|-----------------|
A|-1-----------1---|-3-------3---5---|-----------------|-5-h-3---3-h-1---|
E|---------1-------|-----3-----------|-----------------|-----------------|
  1 + 2 + 3 + 4 +  1 + 2 + 3 + 4 +  1 + 2 + 3 + 4 +  1 + 2 + 3 + 4 +

G|-----------------|-----------------|-----------------|-----------------|
D|-----------------|-----------------|-----------------|-----------------|
A|-1-----------1---|-3-------3---5---|-----------------|-5-h-3---3-h-1---|
E|---------1-------|-----3-----------|-----------------|-----------------|
  1 + 2 + 3 + 4 +  1 + 2 + 3 + 4 +  1 + 2 + 3 + 4 +  1 + 2 + 3 + 4 +

G|-----------------|-----------------|-----------------|-----------------|
D|-----------------|-----------------|-----------------|-----------------|
A|-1-----------1---|-3-------3---5---|-----------------|-----0-----------|
E|---------1-------|-----3-----------|-----------------|-----------------|
  1 + 2 + 3 + 4 +  1 + 2 + 3 + 4 +  1 + 2 + 3 + 4 +  1 + 2 + 3 + 4 +


 Pre-Chorus

G|-----------------|-----------------|-----------------|-----------------|
D|-----------------|-----------------|-----------------|-----------------|
A|---------0-------|-3---0---0---5---|-----------------|-3-------0-------|
E|-3---------------|-----------------|-----------------|-----------------|
  1 + 2 + 3 + 4 +  1 + 2 + 3 + 4 +  1 + 2 + 3 + 4 +  1 + 2 + 3 + 4 +

G|-----------------|-----------------|-----------------|-----------------|
D|-----------------|-----------------|-----------------|-----------------|
A|---------0-------|-3---0---0---5---|-------------0---|-3-------0-------|
E|-3---------------|-----------------|-----------------|-------------4---|
  1 + 2 + 3 + 4 +  1 + 2 + 3 + 4 +  1 + 2 + 3 + 4 +  1 + 2 + 3 + 4 +

G|-----------------|-----------------|-----------------|-----------------|
D|-----------------|-----------------|-----------------|-----------------|
A|---------0-------|-3---0---0---5---|-------------0---|-3-------0-------|
E|-3---------------|-----------------|-----------------|-----------------|
  1 + 2 + 3 + 4 +  1 + 2 + 3 + 4 +  1 + 2 + 3 + 4 +  1 + 2 + 3 + 4 +

G|-----------------|-----------------|
D|-----------------|-----------------|
A|-----------------|-----------------|
E|-----------------|-----------------|
  1 + 2 + 3 + 4 +  1 + 2 + 3 + 4 +


 Chorus

G|-----3-----------|-----------------|-----------------|-----------------|
D|-----------------|-----------------|-----------------|-----------------|
A|-1-----------1---|-3-------3---5---|-------------0---|-3-------0-------|
E|---------1-------|-----3-----------|-----------------|-----------------|
  1 + 2 + 3 + 4 +  1 + 2 + 3 + 4 +  1 + 2 + 3 + 4 +  1 + 2 + 3 + 4 +

G|-----------------|-----------------|-----------------|-----------------|
D|-----------------|-----------------|-----------------|-----------------|
A|---------0-------|-3---0---0---5---|-------------0---|-5---\---3---\---|
E|-3---------------|-----------------|-----------------|-----------------|
  1 + 2 + 3 + 4 +  1 + 2 + 3 + 4 +  1 + 2 + 3 + 4 +  1 + 2 + 3 + 4 +

G|-----3-----------|-----------------|-----------------|-----------------|
D|-----------------|-----------------|-----------------|-----------------|
A|-1-----------1---|-3-------3---5---|-------------0---|-5---\---3---\---|
E|---------1-------|-----3-----------|-----------------|-----------------|
  1 + 2 + 3 + 4 +  1 + 2 + 3 + 4 +  1 + 2 + 3 + 4 +  1 + 2 + 3 + 4 +

G|-----3-----------|-----------------|-----------------|-----------------|
D|-----------------|-----------------|-----------------|-----------------|
A|-1-----------1---|-3-------3---5---|-------------0---|-5---\---3---\---|
E|---------1-------|-----3-----------|-----------------|-----------------|
  1 + 2 + 3 + 4 +  1 + 2 + 3 + 4 +  1 + 2 + 3 + 4 +  1 + 2 + 3 + 4 +

G|-----3-----------|-----------------|-----------------|-----------------|
D|-----------------|-----------------|-----------------|-----------------|
A|-1-----------1---|-3-------3---5---|-------------0---|-3-------0-------|
E|---------1-------|-----3-----------|-----------------|-----------------|
  1 + 2 + 3 + 4 +  1 + 2 + 3 + 4 +  1 + 2 + 3 + 4 +  1 + 2 + 3 + 4 +

G|-----------------|-----------------|-----------------|-----------------|
D|-----------------|-----------------|-----------------|-----------------|
A|---------0-------|-3---0---0---5---|-------------0---|-5---\---3---\---|
E|-3---------------|-----------------|-----------------|-----------------|
  1 + 2 + 3 + 4 +  1 + 2 + 3 + 4 +  1 + 2 + 3 + 4 +  1 + 2 + 3 + 4 +

G|-----3-----------|-----------------|-----------------|-----------------|
D|-----------------|-----------------|-----------------|-----------------|
A|-1-----------1---|-3-------3---5---|-------------0---|-5---\---3---\---|
E|---------1-------|-----3-----------|-----------------|-----------------|
  1 + 2 + 3 + 4 +  1 + 2 + 3 + 4 +  1 + 2 + 3 + 4 +  1 + 2 + 3 + 4 +

G|-----------------|-----------------|-----------------|-----------------|
D|-----------------|-----------------|-----------------|-----------------|
A|-----------------|-----------------|-----------------|-----------------|
E|-----------------|-----------------|-----------------|-----------------|
  1 + 2 + 3 + 4 +  1 + 2 + 3 + 4 +  1 + 2 + 3 + 4 +  1 + 2 + 3 + 4 +


 Outro and Solos

G|-----------------|-----------------|-----------------|-----------------|
D|-----------------|-----------------|-----------------|-----5-------3---|
A|-5---5-------5---|-5---------------|-----------------|-----------------|
E|-----------------|-----------------|-3---3-------3---|-3-------1-------|
  1 + 2 + 3 + 4 +  1 + 2 + 3 + 4 +  1 + 2 + 3 + 4 +  1 + 2 + 3 + 4 +

G|-----------------|-----------------|-----------------|-----------------|
D|-----------------|-----------------|-----------------|-----------------|
A|-----------------|-------1h4-------|-5---5-------5---|-5---------------|
E|-0---0-------0---|-0---------------|-----------------|-----------------|
  1 + 2 + 3 + 4 +  1 + 2 + 3 + 4 +  1 + 2 + 3 + 4 +  1 + 2 + 3 + 4 +

G|-----------------|-----------------|-----------------|-----------------|
D|-----------------|-----5-------3---|-----------------|-----------------|
A|-----------------|-----------------|-----------------|-----------------| x 6
E|-3---3-------3---|-3-------1-------|-0---0-------0---|-0---------------|
  1 + 2 + 3 + 4 +  1 + 2 + 3 + 4 +  1 + 2 + 3 + 4 +  1 + 2 + 3 + 4 +


************************************

| h  Hammer-on
| \  Slide Down
ⓘ Bass guitar tab for 'Redbone' by Childish Gambino, Donald Glover, a male hip-hop artist from Los Angeles, California, USA. Childish Gambino was born in 1983. Childish Gambino is known for his gritty urban/r&b music.

Almost there ...

Sign in to get your own page with links to favourite songs and more. You are just one click away...

Login with Facebook Login with Google