Log in

One click and you are in

Login with Facebook Login with Google

Why sign up and log in

Guitar Tabs Explorer
Childish Gambino bass tabs for Me and your mama

Me And Your Mama bass tab by Childish Gambino

Childish Gambino bass tabs for Me and your mama

Bass tabs

Part 1


Intro
G|----------------------------------------------------------------|
D|----------------------------------------------------------------|
A|----------------------------------------------------------------|
D|-0----0-2-----5-3-2--3-----5-3-2-----7--------------------------|

G|----------------------------------------------------------------|
D|----------------------------------------------------------------|
A|----------------------------------------------------------------|
D|-0---0-2-3-2----2---5---3----3-5-3-2-----7--7-------------------|

G|----------------------------------------------------------------|
D|----------------------------------------------------------------|
A|----------------------------------------------------------------|
D|-0---0-2-3-2---2---5----3----3-5-3-2----------------------------|


Sub Bass Part
G|----------------------------------------------------------------|
D|----------------------------------------------------------------|
A|----------------------------------------------------------------|
D|--0---0------2---2--------0---0-------2---2---------------------|


Part 2


Verse 1
G|------------------------------------------------------------------------------------------------|
D|-------3---7----7-6-5---5-3-------------------------3----7----7-6-5----5-3----------------------|
A|--5----------------------------5-4-3---0h3h4--5------------------------------5-4-3--3-3--0h3h4--|
D|------------------------------------------------------------------------------------------------|


Chorus 1
G|----------------------------------------------------------------|
D|----------------------------------------------------------------|
A|--5-----------------------------------------5-4-3---------------|
D|-------3----7---12\----7-6-5----5--5-0--------------------------|


Verse 2
G|------------------------------------------------------------------------------------------------------|
D|-------3---7----7-6-5----5-3---------------------------------3--7-------------------------------------|
A|--5------------------------------5-4-3---3-3---0h3h4----5-------------------------1-1--3----3--0h3h4--|
D|---------------------------------------------------------------------7-6-5---5-5----------------------|


Chorus 2
G|----------------------------------------------------------------|
D|----------------------------------------------------------------|
A|--5-----------------------------------------5-4-3----12\--------|
D|-------3----7---12\----7-6-5----5--5-0--------------------------|


*Repeat Verse 1
G|------------------------------------------------------------------------------------------------|
D|-------3---7----7-6-5---5-3-------------------------3----7----7-6-5----5-3----------------------|
A|--5----------------------------5-4-3---0h3h4--5------------------------------5-4-3--3-3--0h3h4--|
D|------------------------------------------------------------------------------------------------|


Chorus 3
G|------------------------------------------------------------------------------|
D|-----------------------------------7--5---------------------------------------|
A|--5----------------------------5---------5--3-----3--3-0h1h2-3----------------|
D|-----3---7---------7-6-5--8---------------------------------------------------|


Outro
G|----------------------------------------------------------------|
D|----------------------------------------------------------------|
A|--5---------------------------------1---3----12\----------------|
D|-----3----7----7-6-5---5-5-5-5----------------------------------|

G|------------------------------------------------------------------------------|
D|-----------------------------------7--5---------------------------------------|
A|--5----------------------------5---------5--3-----12\-------------------------|
D|-----3---7---------7-6-5--8---------------------------------------------------|

G|-----------------------------------------------------------------------------|
D|-----------------------------------------------------------------------------|
A|---5-----------------------------------1-1---3---3-3-3----12\----------------|
D|-------3---7-----7-6-5----5-5-5-5--------------------------------------------|

G|----------------------------------------------------------------|
D|----------------------------------------------------------------|
A|---5--5-5-5-5---------------------------------------------------|
D|------------------3--3-3-3-3----7--7-7-7-7----------------------|


Part 3


Intro
G|-------------------------------------------------------------------------------|
D|---------------------------5-8----------3----7---------------------------------|
A|-------------5-3----3-7------------5------------------------3------------------|
D|--7-6-5--------------------------------------------7-6-5---------5-7-----------|

G|------------------------------------------------------------------------------------------------------|
D|------3-----7-------------------------------------------3---7----------------5------------------------|
A|--5--------------------------3-----3-----3/7----5-------------------------------5--4-3----------------|
D|-------------------7-6-5--------------5---------------------------7-6-5--------------------5/7--5--3--|

G|----------------------------------------------------------------|
D|------3----7--------------------5-----------5/7----3------------|
A|--5--------------------------5--------3-------------------------|
D|------------------7-6-5-----------------------------------------|

G|---------------------------------------------------------------------------|
D|------3---7---------------------------------------3---7--------------------|
A|--5------------------------3-1-0-------------5--------------------------3--|
D|-----------------7-6-5-------------5-3-2---------------------7-6-5---------|

G|--------------------------------------------------------------------------------------|
D|------3-----7---------------------5/8--7--5----------3----7---------------------------|
A|--5-------------------------3---------------------5------------------------3-------5--|
D|-------------------7-6-5------------------------------------------7-6-5---------------|


************************************

| x  Dead note
| g  Grace note
| (n) Ghost note
| h  Hammer-on
| p  Pull-off
| r  Release
| >  Accented note
| t  Tapping
| b  Bend
| br Bend release
| pb Pre-bend
| pbr Pre-bend release
| /  Slide up
| \  Slide down
| ~  Vibrato
| s  Slap
| P  Pop
| PM Palm mute
| TR Trill
| N  Tremolo
ⓘ Bass guitar tab for 'Me And Your Mama' by Childish Gambino, Donald Glover, a male hip-hop artist from Los Angeles, California, USA. Childish Gambino was born in 1983. Childish Gambino is known for his gritty urban/r&b music.

Almost there ...

Sign in to get your own page with links to favourite songs and more. You are just one click away...

Login with Facebook Login with Google