Log in

One click and you are in

Login with Facebook Login with Google

Why sign up and log in

Guitar Tabs Explorer
Childish Gambino bass tabs for Baby boy

Bass tabs

Baby Boy - Childish Gambino


Tuning: Standard

Verse 1:

G|-------------------------------------|
D|-7-------------------------3---------|
A|----8--5-----------------5-----------|
E|----------5--3---3-4-5---------------|

G|-------------------------------------|
D|-5/7---------------------------------|
A|------8--5-------------------4-------|
E|------------5--3---3-4-5---5---------|

G|-------------------------------------|
D|-------------------------------------|
A|-5---5-4-3----3---------1--0---------|
E|----------------1---1-1--------------|

G|-------------------------------------|
D|---------5---5------------7----------|
A|-----x-x---5----5------7-------------|
E|-3----------------3-5----------------|

G|-------------------------------------|
D|-5/7-----------------------3-5-------|
A|------8--5---------------------------|
E|------------5--3---3-4-5-------------|

G|-------------------------------------|
D|-5/7---------------------------------|
A|------8--5-------------------4-------|
E|------------5--3---3-4-5---5---------|

G|-------------------------------------|
D|-------------------------------------|
A|-5---5-4-3---x-3---------5--5-x------|
E|-----------------1---0-x-------------|

G|--------------------5-3-5--3---------|
D|------------------5----------5-------|
A|----------2--3-----------------------|
E|-3--5--6-----------------------------|


Chorus 1:

G|-----------------------2-3-2---------|
D|-3-------------------3--------3------|
A|------3-------0--1---------------1---|
E|--------1--3-------------------------|

G|------------------------2-3-2--------|
D|----------------------3--------3-----|
A|-------3-------0--1--------------1---|
E|-1---x---1--3------------------------|

G|-------------------------------------|
D|------------------------5-6-7--------|
A|-----0-1--0--------------------------|
E|-3----------3---5-5-5-5--------------|


Post-Chorus 1:

G|-------------------------------------|
D|-7-------------------------3---------|
A|----8--5-----------------5-----------|
E|----------5--3---3-4-5---------------|

G|-------------------------------------|
D|-5/7---------------------------------|
A|------8--5-------------------3-------|
E|------------5--3---3-4-5---5---------|

G|-------------------------------------|
D|-------------------------------------|
A|-5---5-4-3---x-3---------1--0--------|
E|-----------------1---1-1-------------|

G|-------------------------------------|
D|---------5-3-5--3---------7----------|
A|-----x-5----------5----7-------------|
E|-3------------------5----------------|


Verse 2:

G|-------------------------------------|
D|-7-------------------------3---------|
A|----8--5-----------------5-----------|
E|----------5--3---3-4-5---------------|

G|-------------------------------------|
D|-5/7---------------------------------|
A|------8--5-------------------3-------|
E|------------5--3---3-4-5---5---------|

G|-------------------------------------|
D|-------------------------------------|
A|-5---5-4-3---x-x---------1--0--------|
E|-----------------1---1-1-------------|

G|-------------------------------------|
D|---------5-3-5--3---------7----------|
A|-----x-x----------5----7-------------|
E|-3------------------5----------------|

G|-------------------------------------|
D|-5/7---------------------------------|
A|------8--5-----------------3-5-------|
E|------------5--3---3-4-5-------------|

G|-------------------------------------|
D|-5/7---------------------------------|
A|------8--5-------------------3-------|
E|------------5--3---3-4-5---5---------|

G|-------------------------------------|
D|-------------------------------------|
A|-5---5-4-3---x-x---------5--5--------|
E|-----------------1---0-1------5------|

G|-----------------------3-5-3-5--3----|
D|---------------------5------------5--|
A|-------------3-3-3-3-----------------|
E|-3--5--6--3--------------------------|


Chorus 2:

G|-----------------------2-3-2---------|
D|---------------------3--------3------|
A|------3-------0--1--------------1----|
E|-1------1--3-------------------------|

G|--------------------------2-3-2------|
D|--------3---------------3--------3---|
A|------x---3-----0-0-1--------------1-|
E|-1----------1-3----------------------|

G|-------------------------------------|
D|--------------------------5-7--------|
A|-----0-1--0-------------5------------|
E|-3----------3---5-5-5-5--------------|


Post-Chorus 2:

G|-------------------------------------|
D|-7-------------------------3---------|
A|----8--5-----------------5-----------|
E|----------5--3---3-4-5---------------|

G|-------------------------------------|
D|-5/7---------------------------------|
A|------8--5-------------------3-------|
E|------------5--3---3-4-5---5---------|

G|-------------------------------------|
D|-------------------------------------|
A|-5---5-4-3---x-3---------------------|
E|-----------------1---1-1-6--5--------|

G|-------------------------------------|
D|---------5-3-5--3---------7----------|
A|-----x-5----------5----7-------------|
E|-3------------------5----------------|


Clavinet Interlude:


Clavinet Solo:

G|-------------------------------------|
D|-5/7-------------------------3-------|
A|------8--5-----------------5---------|
E|------------5--3---3-4-5-------------|

G|-------------------------------------|
D|-5/7---------------------------------|
A|------8--5-------------------x-------|
E|------------5--3---3-4-5---x---------|

G|-------------------------------------|
D|-------------------------------------|
A|-5---x-5-3---x-3---------------------|
E|-----------------1---1-1-6--5--------|

G|-------------------------------------|
D|---------5-3-5--3-----------7--------|
A|-----x-5----------5-----7-8----7-----|
E|-3------------------5-------------5--|

G|-------------------------------------|
D|-5/7-------------------------3-------|
A|------8--5-----------------5---------|
E|------------5--3---3-4-5-------------|

G|-------------------------------------|
D|-5/7---------------------------------|
A|------8--5---------------------------|
E|------------5--3---3-4-5---x-5-------|

G|-------------------------------------|
D|-------------------------------------|
A|-5---5-4-3----3---------5------------|
E|----------------1---1-3------5-------|

G|-----------------------3-5-5-5-5-----|
D|---------------------5-----------5-4-|
A|-------0--1--3-3-3-3-----------------|
E|-3--5--------------------------------|

G|-----------------------2-3-2---------|
D|-3-------------------3--------3------|
A|------3-------0--1---------------1---|
E|--------1--3-------------------------|

G|--------------------------3--2-------|
D|--------3--------------3--------3-x--|
A|------3---3----0--1------------------|
E|-1----------3------------------------|

G|-------------------------------------|
D|----------------------------5-7------|
A|-----x-0-1--0-------------7----------|
E|-3------------3---5-5-5-5------------|


Vocal Interlude:

G|-------------------------------------|
D|-------------------------------------|
A|-------------------------------------|
E|-------------------------------------|

G|-------------------------------------|
D|-7-----------------------------------|
A|----8--5-----------------------------|
E|----------5--3---3-4-5---------------|

G|-------------------------------------|
D|-------------------------------------|
A|-5-----3------------1--0-------------|
E|-------------1---3-------------------|

G|-------------------------------------|
D|-------------------------------------|
A|-------------------------------------|
E|-3------------5-5-5-5-5-5-5-5-5-5----|


Outro:

G|-------------------------------------|
D|-7-------------------------3---------|
A|----8--5-----------------5-----------|
E|----------5--3---3-4-5---------------|

G|-------------------------------------|
D|-5/7---------------------------------|
A|------8--5-------------------3-------|
E|------------5--3---3-4-5---5---------|

G|-------------------------------------|
D|-------------------------------------|
A|-5---5-4-3---x-3---------------------|
E|-----------------1---x-1-6--5--------|

G|-------------------------------------|
D|---------5-3-5--3---------7----------|
A|-----x-5----------5----7-------------|
E|-3------------------5----------------|

************************************

| /  slide up
| x  Mute note
ⓘ Bass guitar tab for 'Baby Boy' by Childish Gambino, Donald Glover, a male hip-hop artist from Los Angeles, California, USA. Childish Gambino was born in 1983. Childish Gambino is known for his gritty urban/r&b music.

Almost there ...

Sign in to get your own page with links to favourite songs and more. You are just one click away...

Login with Facebook Login with Google