Log in

One click and you are in

Login with Facebook Login with Google

Why sign up and log in

Guitar Tabs Explorer
Childish Gambino bass tabs for 47 48

Bass tabs with lyrics

Tuning: Standard (E A D G)


verse

little girl, thirteen, broke down
G|------------------------------------|
D|------------------------------------|
A|------------------------------------|
E|-------------------55-55-55-55------|

the violence        little boys,
G|------------------------------------|
D|------------------------------------|
A|------------------------------------|
E|-33-33-33-33-33-33-33-11-----22-22--|

playing round,  shot down     the
G|------------------------------------|
D|------------------------------------|
A|------------------------------------|
E|--22-22-------55-55-55-55------33-33|

 violence       baby girl, baby
G|------------------------------------|
D|------------------------------------|
A|------------------------------------|
E|-33-33-33-33-33-11--------22-22-22-2|

 daddy, he’s had it   the violence
G|------------------------------------|
D|------------------------------------|
A|------------------------------------|
E|2------55-55-55-55----33-33-33-33-33|

      cut him up, in the gang,
G|------------------------------------|
D|------------------------------------|
A|------------------------------------|
E|-33-33-11-----22-22-22-22---------55|

 did the same    the violence
G|------------------------------------|
D|------------------------------------|
A|------------------------------------|
E|-55-55-55-----------33-33-33-33-33--|

the violence, oh
G|------------------------------------|
D|------------------------------------|
A|------------------------------------|
E|-33-33-1~---------------------------|

chorus

 dont worry ‘bout tomorrow, the violence
G|------------------------------------|
D|------------------------------------|
A|------------------------------------|
E|---------------------------33-33-33-|

 the violence      dont worry bout
G|------------------------------------|
D|------------------------------------|
A|----33-33-33------------------------|
E|-33----------/11/-55-55-55-55-55----|

 tomorrow, the violence  the violence
G|------------------------------------|
D|------------------------------------|
A|----------------------------33-33-33|
E|-33-33-33-33-33-33-33-33-33---------|

G|------------------------------------|
D|------------------------------------|
A|------------------------------------|
E|/11/--------------------------------|

repeat verses but for second chorus
there is slight variation:


dont worry ‘bout tomorrow, the violence
G|------------------------------------|
D|------------------------------------|
A|------------------------------------|
E|-55-55-55-55-55------------33-33-33-|

 the violence      dont worry bout
G|------------------------------------|
D|------------------------------------|
A|----33-33-33------------------------|
E|-33----------/11/-55-55-55-55-55----|

 tomorrow, the violence  the violence
G|------------------------------------|
D|------------------------------------|
A|----------------------------33-33-33|
E|-33-33-33-33-33-33-33-33-33---------|

G|------------------------------------|
D|------------------------------------|
A|------------------------------------|
E|/11/--------------------------------|


************************************

| ~ Vibrato
| / Slide up

************************************
ⓘ Bass guitar tab for '47 48' by Childish Gambino, Donald Glover, a male hip-hop artist from Los Angeles, California, USA. Childish Gambino was born in 1983. Childish Gambino is known for his gritty urban/r&b music.

Almost there ...

Sign in to get your own page with links to favourite songs and more. You are just one click away...

Login with Facebook Login with Google