Search tabs and chords

Search for song, artist or band

Log in

One click and you are in

Login with Facebook Login with Google

Why sign up and log in

Guitar Tabs Explorer
Tyler Childers guitar tabs for Lady may acoustic

Guitar tabs

  • Capo on 3rd
Tuning: Standard (E A D G B E)

Key: A chord diagramC majorC

Difficulty: Intermediate

Intro:
e|--------------------------------------------------------------------------------------------|
B|--------------------------------------------------------------------------------------------|
G|--------------------------0h2------------0h2p0--------------2-------------------------------|
D|2p0--------0-0h2--2p0--3---------0h2--3--------2p0----0h2---2--2----2-----------------------|
A|----3-3-3---------------------3--------------------3-----------0h2--3-----------------------|
E|--------------------------------------------------------------------------------------------|

e|--------------------------------------------------------------------------------------------|
B|--------------------------------------------------------------------------------------------|
G|----0---------------------------0h2------------0h2p0--------------2----------------0--------|
D|0h2---2p0--------0-0h2--2p0--3---------0h2--3--------2p0----0h2---2--2----2--0h2-2----0h2---|
A|----------3-3-3---------------------3--------------------3-----------0h2--3--3--------3-----|
E|--------------------------------------------------------------------------------------------|

Verse:
I'm a stone's throw from the mill...
e|--------------------------------------------------------------------------------------------|
B|--------------------------------------------------------------------------------------------|
G|---------0----------0h2-----------0h2---------2--------------0------------------------------|
D|2--0h2-2----0h2--3---------0h2-3---------0h2--2--2--2--0h2-2----0h2-------------------------|
A|3--3--------3-----------3-------------3----------2--3--3--------3---------------------------|
E|--------------------------------------------------------------------------------------------|


Put your toes down in the water...
e|--------------------------------------------------------------------------------------------|
B|--------------------------------------------------------------------------------------------|
G|---------0----------0h2-----------0h2---------2--------------0------------------------------|
D|2--0h2-2----0h2--3---------0h2-3---------0h2--2--2--2--0h2-2----0h2-------------------------|
A|3--3--------3-----------3-------------3----------2--3--3--------3---------------------------|
E|--------------------------------------------------------------------------------------------|

Chorus:
Now I ain't the sharpest chisel...
e|--------------------------------------------------------------------------------------------|
B|--------------------------------------------------------------------------------------------|
G|2--------------0---0h2--------2--------------0---------0h2---------0------------------------|
D|2--2--2--0h2-2---3-------0h2--2--2--2--0h2-2----0h2--3-------0h2-2----0h2-------------------|
A|---2--3--3-------------3---------2--3--3--------3----------3-3------------------------------|
E|--------------------------------------------------------------------------------------------|

I've seen my share of trouble...
e|--------------------------------------------------------------------------------------------|
B|--------------------------------------------------------------------------------------------|
G|2--------------0---0h2----------0--------0h2---------0--------2--------------0--------------|
D|2--2--2--0h2-2---3--------0h2-2---0h2--3-------0h2-2---0h2----2--2--2--0h2-2---0h2----------|
A|---2--3--3-------------3---------------------3-------------------2--3--3-------3------------|
E|--------------------------------------------------------------------------------------------|

Interlude:
e|--------------------------------------------------------------------------------------------|
B|--------------------------------------------------------------------------------------------|
G|--------------------------0h2------------0h2p0--------------2-------------------------------|
D|2p0--------0-0h2--2p0--3---------0h2--3--------2p0----0h2---2--2----2-----------------------|
A|----3-3-3---------------------3--------------------3-----------0h2--3-----------------------|
E|--------------------------------------------------------------------------------------------|

e|--------------------------------------------------------------------------------------------|
B|--------------------------------------------------------------------------------------------|
G|----0---------------------------0h2------------0h2p0--------------2----------------0--------|
D|0h2---2p0--------0-0h2--2p0--3---------0h2--3--------2p0----0h2---2--2----2--0h2-2----0h2---|
A|----------3-3-3---------------------3--------------------3-----------0h2--3--3--------3-----|
E|--------------------------------------------------------------------------------------------|

Verse:
Lord the wind can leave you shiverin'...
e|--------------------------------------------------------------------------------------------|
B|--------------------------------------------------------------------------------------------|
G|---------0----------0h2---------2--------------0---0h2---------0----------------------------|
D|2--0h2-2----0h2--3---------0h2--2--2--2--0h2-2---3-------0h2-2---0h2------------------------|
A|3--3--------3-----------3----------2--3--3-------------3------------------------------------|
E|--------------------------------------------------------------------------------------------|

Now the mountains are all blushin'...
e|--------------------------------------------------------------------------------------------|
B|--------------------------------------------------------------------------------------------|
G|---------0----------0h2---------2--------------0---0h2---------0----------------------------|
D|2--0h2-2----0h2--3---------0h2--2--2--2--0h2-2---3-------0h2-2---0h2------------------------|
A|3--3--------3-----------3----------2--3--3-------------3------------------------------------|
E|--------------------------------------------------------------------------------------------|

Chorus:
Now I aint the toughest hickory...
e|--------------------------------------------------------------------------------------------|
B|--------------------------------------------------------------------------------------------|
G|2--------------0---0h2----------0h2--------2--------------0---------------------------------|
D|2--2--2--0h2-2---3-------0h2--3-------0h2--2--2--2--0h2-2---0h2-----------------------------|
A|---2--3--3-------------3------------3---------2--3--3-------3-------------------------------|
E|--------------------------------------------------------------------------------------------|

I came crashin' through the forest...
e|--------------------------------------------------------------------------------------------|
B|--------------------------------------------------------------------------------------------|
G|2--------------0---0h2----------0h2--------2--------------0---------------------------------|
D|2--2--2--0h2-2---3-------0h2--3-------0h2--2--2--2--0h2-2---0h2-----------------------------|
A|---2--3--3-------------3------------3---------2--3--3-------3-------------------------------|
E|--------------------------------------------------------------------------------------------|

Outro:
e|--------------------------------------------------------------------------------------------|
B|--------------------------------------------------------------------------------------------|
G|--------------------------0h2------------0h2p0--------------2-------------------------------|
D|2p0--------0-0h2--2p0--3---------0h2--3--------2p0----0h2---2--2----2--0h2--0h2-------------|
A|----3-3-3---------------------3--------------------3-----------0h2--3-----------------------|
E|--------------------------------------------------------------------------------------------|

************************************

| h  Hammer-on
| p  Pull-off

************************************

Other versions of Lady May Acoustic

Lady mayChords

Almost there ...

Sign in to get your own page with links to favourite songs and more. You are just one click away...

Login with Facebook Login with Google