Log in

One click and you are in

Login with Facebook Login with Google

Why sign up and log in

Guitar Tabs Explorer
Chickenfoot tabs for No change

Guitar tabs with lyrics

Chickenfoot - 'No Change'
From 'Chickenfoot III' album

Tuning - 1/2 step down (A chord diagramEb MajorEb)
tabbed by jjhand

Please rate/comment. I might put the lyrics up as well later if I find them.
Intro- Chords from

A chord diagramEMaj7Emaj7        A chord diagramAbAb sus4
eb|--0----------|-------------|--0----------|---------------|
A chord diagramBb majorBb|-13----------|-------------|-13----------|-10------------|
A chord diagramGbGb|-10----------|-7-----------|-10----------|-7-------------|
A chord diagramDbDb|-------------|-7-----------|-------------|-7-------------|
A chord diagramAbAb|-------------|-0-----------|-------------|-0------x/12\--|
A chord diagramEb MajorEb|-------------|-------------|-------------|---------------|



Main Riff

|-------------------------|-------------------------|
|-------------------------|-------------------------|
|-------------------------|-------------------------|
|-------------------------|-------------------------|
|-------------------------|-------------------------|
|-3-5--5--5--5--8-5--5-3--|-3-5--5--5--5--3-5--6PH~-|

|-------------------------|----------------------------|
|-------------------------|----------------------------|
|-------------------------|--------------------------5-|
|-------------------------|------------------5-6-7-7---|
|-------------------------|---------5--6--7------------|
|-3-5--5--5--5--8-5--5-3--|-3/5--8---------------------|



Verse Part -     See L1-L4

L1
|-------------------------|-----------------------|
|-------------------------|-----------------------|
|-------------------------|-----------------------|
|-------------------------|-----------------------|
|-------------------------|-----------------------|
|-3-5--5--5--5--3-5--5-3--|-3-5--5--5--5--3-5--6~-|

L2
|-------------------------|-----------------------|
|-------------------------|-----------------------|
|-------------------------|-----------------------|
|-------------------------|-----------------------|
|-------------------------|-----------------------|
|-3-5--5--5--5--3-5--5-3--|-3-5--5--5--5--3-5--3--|

repeat L1

L4
|-------------------------|----------------------------|
|-------------------------|----------------------------|
|-------------------------|--------------------------5-|
|-------------------------|------------------5-6-7-7---|
|-------------------------|---------5--6--7------------|
|-3-5--5--5--5--3-5--5-3--|-3/5--8---------------------|





Chorus - Repeat once but do pick scrape at end
|-5----------|-3----------|-5----------|--------------|
|-5----------|-3----------|-5----------|--------------|
|-5----------|-4----------|-5----------|--------------|
|-7----------|-5----------|-7----------|--------------|
|-7----------|-5----------|-7----------|--------------|
|-5----------|-3----------|-5----------|-5~~~~~~~~----|





Verse 2 - Play Verse Riff again

Play Chorus Again


Rhythm Part for solo -

|------------------------------|
|------------------------------|
|------------------------------|
|------------------------------|
|------------------------------|
|-1p0-0-1--1--1--1p0-0-1p0-0-0-|
play with some palm muting alternated throughout


Solo Part - use tremelo picking on each note

|-/22------|-22-20-19-20-22-20-19-17-|-19-20-19-17-19-17-15-13-|-15-13-12-10-12--|
|----------|-------------------------|-------------------------|-----------------|
|----------|-------------------------|-------------------------|-----------------|
|----------|-------------------------|-------------------------|-----------------|
|----------|-------------------------|-------------------------|-----------------|
|----------|-------------------------|-------------------------|-----------------|

|-0h17-0h15-0h13-0h12-0h13-0h12-|-0h10-0h12-0h10-0h8-0h10-0h8-|
|-------------------------------|-----------------------------|
|-------------------------------|-----------------------------|
|-------------------------------|-----------------------------|
|-------------------------------|-----------------------------|
|-------------------------------|-----------------------------|

|-0h7-0h5-0h7-0h5-0h3-0h5-|-0h3-0h1h3p1p0---------------|
|-------------------------|---------------/5------------|
|-------------------------|-----------------------------|
|-------------------------|-----------------------------|
|-------------------------|-----------------------------|
|-------------------------|-----------------------------|


Echo guitar Part
|--------------|--------------|-----------------------------|
|--------------|--------------|-----------------------------|
|-9/11\--------|--5b6-5~~~~---|-feedback--------------------|
|--------------|--------------|-----------------------------|
|--------------|--------------|-----------------------------|
|--------------|--------------|-----------------------------|

2:11
|-------------------------------------|-------------------------------------|
|-------------------------------------|-------------------------------------|
|-3T12-T12-3T12-T12-3T12-T12-3T12-T12-|-6T10-T10-6T10-T10-6T10-T10-6T10-T10-|
|-------------------------------------|-------------------------------------|
|-------------------------------------|-------------------------------------|
|-------------------------------------|-------------------------------------|

|-------------------------------------|
|-------------------------------------|
|--6T10-T10-6T10-T10-6T10-T10--6/19---|
|-------------------------------------|
|-------------------------------------|
|-------------------------------------|

|-3T10-T10-3T10-T10-3T10-T10-3T10-T10-|-6T15-T15-6T15-T15-6T15-T15-6T15-T15-|
|-------------------------------------|-------------------------------------|
|-------------------------------------|-------------------------------------|
|-------------------------------------|-------------------------------------|
|-------------------------------------|-------------------------------------|
|-------------------------------------|-------------------------------------|

play
|-T13-T13p10p9-T13-T13p10p9-T13-T13p10p9-T13-T13p10p9-|-13/---x\----
|-----------------------------------------------------|-------x\----
|-----------------------------------------------------|-------------
|-----------------------------------------------------|-------------
|-----------------------------------------------------|-------------
|-----------------------------------------------------|-------------

sweep 4x............             sweep 4x.........
|----------17--------------------|----------17---------------|
|-------18----18-----------------|-------17----17------------|
|----17----------17--------------|----17----------17---------|
|-15----------------15-----------|-14------------------------|
|--------------------------------|---------------------------|
|--------------------------------|---------------------------|

sweep 4x............             sweep 2x.........
|----------17--------------------|----------17--------15--15/17~~--|
|-------18----18-----------------|-------17----17-------17---------|
|----17----------17--------------|----17----------17---------------|
|-15----------------15-----------|-14------------------------------|
|--------------------------------|---------------------------------|
|--------------------------------|---------------------------------|

Back to verse Riff

Play chorus Again with some ad libs

Play Main Riff Again to end song 4x

End on A chord diagramAbmAbm Chord, Satch wipes strings to get whistle sounds

KEY
************************************

| /   slide up
| \   slide down
| h   hammer-on
| p   pull-off
| ~   vibrato
| PH  pinch harmonic
| x   Mute note
| b   Bend
| r   Bend release
| T   Right hand tapping

************************************

Almost there ...

Sign in to get your own page with links to favourite songs and more. You are just one click away...

Login with Facebook Login with Google