Log in

One click and you are in

Login with Facebook Login with Google

Why sign up and log in

Guitar Tabs Explorer
Chicago bass tabs for Youre the inspiration

Bass tabs

Track from Chicago 17 - You're the Inspiration


Tuning - Standard
Intro - Piano

    Intro
G |------------------|
D |--------1---------|
A |--2--4------4--2--|
E |------------------|

     Verse
G |------------------|
D |--------1---------|
A |--2--4------4--2--|
E |------------------|

                  Prechorus
G |-------------------|-----------------------|------------------|------------|
D |-------------------|-----------------------|------------------|------------|
A |--1------2------2--|-------------0------0--|------------------|------------|
E |-------------------|--4------4-------------|--3----3--4----1--|--2------3--|

G |--1--1--0-----------|
D |-----------3--1--0--|
A |--------------------|
E |--------------------|

             Chorus
G |-----------------0--|-----0--1--|--5--1--3--|--3--1--------|
D |--1-------1--3------|--3--------|-----------|--------3--0--|
A |--------------------|-----------|-----------|--------------|
E |--------------------|-----------|-----------|--------------|

G |-----------------0--|-----0--1--|--10--8-------------------------|
D |--1-------1--3------|--3--------|---------10--8--6--8----8----6--|
A |--------------------|-----------|--------------------------------|
E |--------------------|-----------|--------------------------------|

G |-----------------|-----------------|-----------|
D |--4------4----4--|--4------4----4--|-----------|
A |-----------------|-----------------|--1--2--4--|
E |-----------------|-----------------|-----------|

G |------------|-----------------|
D |------------|-----1-----------|
A |--4------4--|--4-----4-----4--|
E |------------|-----------------|

     Post Chorus
G |------------------------|
D |--------1------------2--|
A |--2--4-------4--2-------|
E |------------------------|

            Verse II
G |-----------------|-----------|-----------------|-----3-----|
D |-----------------|--------1--|--1------1----1--|--4-----4--|
A |--2------2----2--|--2--4-----|-----------------|-----------|
E |-----------------|-----------|-----------------|-----------|

G |--1------1-------------|-------------------------------|------------4----------|
D |-------------4------4--|--2------2----2----1-----2-----|-----------------------|
A |-----------------------|----------------------4-----4--|--2------2-------2--4--|
E |-----------------------|-------------------------------|-----------------------|

G |-----------------|--------3--|--1------1-------------|
D |--1------1----1--|--1--4-----|-------------4------4--|
A |-----------------|-----------|-----------------------|
E |-----------------|-----------|-----------------------|

G |-----------------------|
D |--2------2-1-2------2--|
A |-----------------------|
E |-----------------------|

Repeat Prechorus

             Chorus II
G |-----------------0--|-----0--1--|--5--1--3--|--3--1--------|
D |--1-------1--3------|--3--------|-----------|--------3--0--|
A |--------------------|-----------|-----------|--------------|
E |--------------------|-----------|-----------|--------------|

G |-----------------0--|-----0--1--|--10--8-------------------------|
D |--1-------1--3------|--3--------|---------10--8--6--8----8----6--|
A |--------------------|-----------|--------------------------------|
E |--------------------|-----------|--------------------------------|

G |------------1------------|------------1-----|-----------|
D |--4------4-----4------4--|--4------4-----4--|-----------|
A |-------------------------|------------------|--1--2--4--|
E |-------------------------|------------------|-----------|

G |---------6--8------------|-------------------------|
D |-------------------------|-------------------------|
A |--4----------------------|-------------------------|
E |---------------9------9--|--9------9---10-----10---|

              Bridge
G |------------------------------|--------10--8-----------------------|
D |------------------------------|---------------10------8------8-----|
A |--------------8-10------8-10--|--11---------------11------------8--|
E |--11------11------------------|------------------------------------|

G |---------------0--|-----0--1--|--1------5--1---3------3--|
D |------------3-----|--3--------|--------------------------|
A |--6------6--------|-----------|--------------------------|
E |------------------|-----------|--------------------------|

                Prechorus
G |-------------------------|-----1----------------------------|-------------------------|
D |--4------4-----4------4--|--4-----4-----4------4------4-----|-------------------------|
A |-------------------------|-------------------------------2--|--4------4-----4------4--|
E |-------------------------|----------------------------------|-------------------------|

G |-------------------------|
D |-------------------------|
A |--4------4-----4------4--|
E |-------------------------|

                Final Chorus
G |------------0--2--|--2--3--4----5-------|--------2--5--7--|--7--5--3--|
D |--3------3--------|---------------------|--3--------------|-----------|
A |------------------|------------------3--|-----------------|-----------|
E |------------------|---------------------|-----------------|-----------|

G |--2-----0-----5-------|------------0--2--|--2--3--5--------|
D |----------------------|--3------3--------|-----------------|
A |-------------------3--|------------------|-------------3---|
E |----------------------|------------------|-----------------|

G |--------2--5--7--|--7--5--3--|--2-----0-----5--------|------------0--2--|
D |--3--------------|-----------|-----------------------|--3------3--------|
A |-----------------|-----------|-----------------3--3--|------------------|
E |-----------------|-----------|-----------------------|------------------|

G |--2--5--3--|--3--7--5-------|--------2--5--7--|--5----3----2----0---|
D |-----------|----------------|--3--------------|---------------------|
A |-----------|-------------3--|-----------------|---------------------|
E |-----------|----------------|-----------------|---------------------|

G |--5--0-----|------------0--2--|--2--5--3--|--3--5--------|
D |-----------|--3------3--------|-----------|--------------|
A |--------3--|------------------|-----------|-----------3--|
E |-----------|------------------|-----------|--------------|

G |--------2--5--7--|
D |-----------------|
A |--3--------------|
E |-----------------|

Almost there ...

Sign in to get your own page with links to favourite songs and more. You are just one click away...

Login with Facebook Login with Google