Log in

One click and you are in

Login with Facebook Login with Google

Why sign up and log in

Guitar Tabs Explorer
Chic bass tabs for Savoir faire

Bass tabs

Chic
"Savoir Faire"
tabbed by: primusfan

Ring on open E. Then ...

G------------------------------------------------------|
D---------4-4------------------------------------------|
A------4------4----------4-4----2--2*---2-2-----2-0----|
E--2------------2---4-4-------2-------2------2------4-0|

              * - ring out here on the fourth go-round. then start the section below

                          Ending (back to A section)
G-----4-----------------------------------------||--------|
D-3h4---4-3-2-------0---------------------------||--------|
A--------------------------2-2---2------2-2-----||--------|
E------------------------------2---2--2-----2---||---2--0-|


Repeat these two parts back and forth as needed.

Almost there ...

Sign in to get your own page with links to favourite songs and more. You are just one click away...

Login with Facebook Login with Google