Log in

One click and you are in

Login with Facebook Login with Google

Why sign up and log in

Guitar Tabs Explorer
The Chats bass tabs for Identity theft

Bass tabs

Tuning: Standard (E A D G)

Difficulty: Novice


Intro:
G|------------------------------------------------------------|
D|------------------------------------------------------------|
A|----------------------------5--3--3-0-3--3-0-3--3-0-3-0-----|
E|---5--5-3-5--5-3-5--5-3-5-5-----------------------------3-4-|


Verse:
G|------------------------------------------------------------|
D|------------------------------------------------------------|
A|----------------------------5--3--3-0-3--3-0-3--3-0-3-0-----|
E|---5--5-3-5--5-3-5--5-3-5-5-----------------------------3-4-|


Chorus First Half:
G|-------------------------------------------------------------------|
D|-------------------------------------------------------------------|
A|------------------3-3-3-3-3-3-3-3-----------------5-5-5-5-5-5-5-5--|
E|--1-1-1-1-1-1-1-1-----------------3-3-3-3-3-3-3-3------------------|


Chorus Second Half (After the last "Identity!")
G|------------------------------------------------------------|
D|------------------------------------------------------------|
A|----------------------------5--3--3-0-3--3-0-3--3-0-3-0-----|
E|---5--5-3-5--5-3-5--5-3-5-5-----------------------------3-4-|

Almost there ...

Sign in to get your own page with links to favourite songs and more. You are just one click away...

Login with Facebook Login with Google