Log in

One click and you are in

Login with Facebook Login with Google

Why sign up and log in

Guitar Tabs Explorer
Chase Atlantic bass tabs for Keep it up

Bass tabs

Tuning: Standard (E A D G)

the bass comes in with the last drum
beat right before mitty starts singing

G|--------------------5-7-5---------|
D|--------------------------7-5-3---|
A|-3-----------3-1----------------3-|
E|------0-1-3-----------------------|

G|----------------------------------|
D|----------------------------------|
A|---3-1----3-5-3---3---------------|
E|----------------5-----------------|


you repeat this through the whole song
though i think they change it some parts,
but the song is played in a F major scale,
and the notes are C and Bb, so you can
play based on this too

Almost there ...

Sign in to get your own page with links to favourite songs and more. You are just one click away...

Login with Facebook Login with Google