Search tabs and chords

Search for song, artist or band

Log in

One click and you are in

Login with Facebook Login with Google

Why sign up and log in

Guitar Tabs Explorer
Charlie Burg guitar tabs for Lovesong from the living room acoustic

Lovesong From The Living Room Acoustic tab by Charlie Burg

Charlie Burg guitar tabs for Lovesong from the living room acoustic

Guitar tabs

Tuning: Standard (E A D G B E)

Key: A chord diagramA majorA

Difficulty: Intermediate

https://www.youtube.com/watch?v=arl31szTuas

Intro:
e|--5----4----2---------------5----9-----7-----------------------|
B|--5----5----3----7--6-------5----9-----7----7------------------|
G|--6----6----4----7--7-------6----9-----7----7------------------|
D|--7----6----4----6--6-------7----9-----7----6------------------|
A|--7----4----2----7--7-------7----11----9----7------------------|
E|--5--------------0--0-------5----9-----7----0-------0--2--4----|
Verse:
e|--5----9-----7--------------5----4--------------------|
B|--5----9-----7----7--6------5----5----7----7----9-----|
G|--6----9-----7----7--7------6----6----7----7----------|
D|--7----9-----7----6--6------7----6----7----6----------|
A|--7----11----9----7--7------7----4----5----7----8-----|
E|--5----9-----7----0--0------5--------------0----------|

e|--9-----9---8---9-----7------------9-----9-----8---7-----------------------|
B|--10----9---8---9-----7----9--9----10----9-----8---7----7------------------|
G|--11----9---8---9-----7----9-------11----9-----8---7----7------------------|
D|--11----9---8---9-----7----9-------11----9-----8---7----6------------------|
A|--9-----11--10--11----9----7--8----9-----11----10--9----7------------------|
E|--------9---8---9-----7------------------9-----8---7----0-------0--2--4----|

e|--5----4--------------5----9----------------|
B|--5----5----7----9----5----9-----10----7----|
G|--6----6----7----9----6----9-----11----7----|
D|--7----6----7----9----7----9-----12----6----|
A|--7----4----5----7----7----11----x-----7----|
A|--7----4----5----7----7----11----10----0----|

Chorus:
e|-------4----2------------5----4----2------------|
B|--2----5----3----7-------5----5----3----9--9----|
G|--2----6----4----7-------6----6----4----9-------|
D|--2----6----4----6-------7----6----4----9-------|
A|--0----4----2----7-------7----4----2----7--8----|
E|-----------------0-------5----------------------|

e|--9-----9------------------------2----2----5----|
B|--10----9-----10---7-------10----2----3----6----|
B|--10----9-----10---7-------10----2----3----6----|
D|--11----9-----12---9-------7-----4----4----7----|
A|--9-----11----x----x-------x-----4----2----5----|
E|--------9-----10---7-------9-----2--------------|


Verse:
e|--5----9-----7--------------5----4--------------------|
B|--5----9-----7----7--6------5----5----7----7----9-----|
G|--6----9-----7----7--7------6----6----7----7----------|
D|--7----9-----7----6--6------7----6----7----6----------|
A|--7----11----9----7--7------7----4----5----7----8-----|
E|--5----9-----7----0--0------5--------------0----------|

e|--9-----9---8---9-----7------------9-----9-----8---7-----------------------|
B|--10----9---8---9-----7----9--9----10----9-----8---7----7------------------|
G|--11----9---8---9-----7----9-------11----9-----8---7----7------------------|
D|--11----9---8---9-----7----9-------11----9-----8---7----6------------------|
A|--9-----11--10--11----9----7--8----9-----11----10--9----7------------------|
E|--------9---8---9-----7------------------9-----8---7----0-------0--2--4----|

e|--5----4--------------5----9----------------|
B|--5----5----7----9----5----9-----10----7----|
G|--6----6----7----9----6----9-----11----7----|
D|--7----6----7----9----7----9-----12----6----|
A|--7----4----5----7----7----11----x-----7----|
A|--7----4----5----7----7----11----10----0----|


Chorus:
e|-------4----2------------5----4----2------------|
B|--2----5----3----7-------5----5----3----9--9----|
G|--2----6----4----7-------6----6----4----9-------|
D|--2----6----4----6-------7----6----4----9-------|
A|--0----4----2----7-------7----4----2----7--8----|
E|-----------------0-------5----------------------|

e|--9-----9------------------------2----2----5----|
B|--10----9-----10---7-------10----2----3----6----|
B|--10----9-----10---7-------10----2----3----6----|
D|--11----9-----12---9-------7-----4----4----7----|
A|--9-----11----x----x-------x-----4----2----5----|
E|--------9-----10---7-------9-----2--------------|


Bridge:
e|-----------------------------9--------4--------------|
B|------------------------7----10--9----5----7/9\7-----|
G|------------------------7----11--9----6----7/9\7-----|
D|--7----7----7----5------7----11--9----6----7/9\7-----|
A|--7----8----9----4------5----9---7----4----5/7\5-----|
E|--5----5----5----5-----------------------------------|

e|-----------------------------9--------4----------------------------|
B|------------------------7----10--9----5----7/9\7---------9----7----|
G|------------------------7----11--9----6----7/9\7----7----9----7----|
D|--7----7----7----5------7----11--9----6----7/9\7----7----9----6----|
A|--7----8----9----4------5----9---7----4----5/7\5----6----7----7----|
E|--5----5----5----5--------------------------------------------0----|


Chorus:
e|-------4----2------------5----4----2------------|
B|--2----5----3----7-------5----5----3----9--9----|
G|--2----6----4----7-------6----6----4----9-------|
D|--2----6----4----6-------7----6----4----9-------|
A|--0----4----2----7-------7----4----2----7--8----|
E|-----------------0-------5----------------------|

e|--9-----9------------------------2----2----5----|
B|--10----9-----10---7-------10----2----3----6----|
B|--10----9-----10---7-------10----2----3----6----|
D|--11----9-----12---9-------7-----4----4----7----|
A|--9-----11----x----x-------x-----4----2----5----|
E|--------9-----10---7-------9-----2--------------|



Last Chord
e|-(5)--|
B|--5---|
G|--4---|
D|--4---|
A|--x---|
E|--5---|



************************************

| x    Dead note
| /    Slide up
| \    Slide down
| (n)  Ghost note

************************************

Almost there ...

Sign in to get your own page with links to favourite songs and more. You are just one click away...

Login with Facebook Login with Google