Log in

One click and you are in

Login with Facebook Login with Google

Why sign up and log in

Guitar Tabs Explorer
Charlie Brown Jr. guitar chords for Quebra-mar

Guitar chords with lyrics

Am7(9)
Eu não vou mudar mas minha vida agora é outra
   E7(9)
Eu vou tentar entender o que sai da tua boca
Am7(9)                        E7(9)
É só por isso, vivo por isso, vivo por isso e sem isso eu não vivo
   Am7(9)
Se você quiser entender, então me deixa te explicar
E7(9)
Rua de concreto, sangue nobre, água do mar
Am7(9)
Rôle no meu Impala, pode acreditar
            E7(9)
Dinheiro na mão, brisa no olhar

               Am7(9)
Tem pra mandar trazer, tem, tem pra mandar buscar, vai!
                E7(9)
Tem pra mostrar poder, tem, tem pra te alucinar
               Am7(9)
Eu não fico dividido, eu sei porque tomo partido
      E7(9)
O sistema é falido e já aconteceu comigo

Am7(9)
Eu não vou mudar mas minha vida agora é outra
   E7(9)
Eu vou tentar entender o que sai da tua boca
Am7(9)                       E7(9)
É só por isso, vivo por isso, vivo por isso e sem isso eu não vivo
   Am7(9)
Se você quiser entender, então me deixa te explicar
E7(9)
Rua de concreto, sangue nobre, água do mar
Am7(9)
Rôle no meu Impala, pode acreditar
            E7(9)
Dinheiro na mão, brisa no olhar

          Am7(9)
O que não pode é essa situação
              E7(9)
Do que eu não gosto que eu me livro e digo não
          Am7(9)              E7(9)
O que não pode é essa situação

Solo: Am7(9)  E7(9)

E|--7----10-8-7-8-7-------7---7/8-7------------|
B|------------------10-8------------10-8-------|
G|-9--9-----------------9---9------------9-----|
D|---------------------------------------------|
A|---------------------------------------------|
E|---------------------------------------------|

E|--7----10-8-7-8-7-------7---7/8-7------------|
B|------------------10-8------------10-8-------|
G|-9--9-----------------9---9------------9-----|
D|---------------------------------------------|
A|---------------------------------------------|
E|---------------------------------------------|

E|------7-8-8/10-8-7------7--7/8-7-------------|
B|-8/10----------------10----------10-8--------|
G|-------------------9------------------9------|
D|---------------------------------------------|
A|---------------------------------------------|
E|---------------------------------------------|

E|------7-8-8/10-8-7------7--7/8-7-------------|
B|-8/10----------------10----------10-8----8/10|
G|-------------------9------------------9------|
D|---------------------------------------------|
A|---------------------------------------------|
E|---------------------------------------------|


FORMAÇÃO CORRETA DOS ACORDES:

Am7(9)
E|---7---|
B|---5---|
G|---5---|
D|---5---|
A|---0---|
E|-------|

E7(9)
E|---7---|
B|---7---|
G|---7---|
D|---7---|
A|---9---|

↓ Add and view comments below ↓

What do you think about this song and these chords?

Add your comments, questions, rant or a thumbs up below.

Almost there ...

Sign in to get your own page with links to favourite songs and more. You are just one click away...

Login with Facebook Login with Google