Log in

One click and you are in

Login with Facebook Login with Google

Why sign up and log in

Guitar Tabs Explorer
Charli XCX bass tabs for Break the rules (Ver. 2)

Bass tabs

Album:Sucker

Tuning:EADG

Intro and First Verse
G|--------------------------------------------------|
D|--------------------------------------------------|
A|--3--3--3-----------------6--6--6-----------------| x5
E|-----------6--6--4--4--4-----------1--1--1--1--1--|
G|-----------------------------------------------------------|
D|-----------------------------------------------------------|
A|--------------------------------------------------1--1--1--|
E|--1--1--1--1--1--1--1--1--1--1--1--1--1--1--1--1-----------|

G|--------------------------------------------------|
D|--------------------------------------------------|
A|--3--3--3-----------------6--6--6-----------------| x3
E|-----------6--6--4--4--4-----------1--1--1--1--1--|

G|-----------------------------------------------------------|
D|-----------------------------------------------------------|
A|--------------------------------------------------1--1--1--|
E|--1--1--1--1--1--1--1--1--1--1--1--1--1--1--1--1-----------|


Chorus
G|--------------------------------------------------|
D|--------------------------------------------------|
A|--------------------------------------------------|
E|--8\----------------------------------------------|

G|--------------------------------------------------|
D|--------------------------------------------------|
A|--------------------------------------------------|
E|--------------------------------------------------|

G|--------------------------------------------------------------------------------------------------|
D|--------------------------------------------------------------------------------------------------|
A|--3--3--3--3--3--3--3--3--------------------------6--6--6--6--6--6--6--6--5--5--5--5--5--5--5--5--|
E|--------------------------4--4--4--4--4--4--4--4--------------------------------------------------|

G|-----------------------------------------------------------------------------|
D|-----------------------------------------------------------------------------|
A|--3--3--3--3--3--3--3--3--------------------------6--6--6--6--6--6--6--6-----|
E|--------------------------4--4--4--4--4--4--4--4--------------------------1--|


filler
G|--------------------------------------------------|
D|--------------------------------------------------|
A|--3--3--3-----------------6--6--6-----------------| x4
E|-----------6--6--4--4--4-----------1--1--1--1--1--|


Second Verse
G|--------------------------------------------------|
D|--------------------------------------------------|
A|--3--3--3-----------------6--6--6-----------------| x3
E|-----------6--6--4--4--4-----------1--1--1--1--1--|

G|-----------------------------------------------------------|
D|-----------------------------------------------------------|
A|--------------------------------------------------1--1--1--|
E|--1--1--1--1--1--1--1--1--1--1--1--1--1--1--1--1-----------|


Chorus

G|--------------------------------------------------|
D|--------------------------------------------------|
A|--------------------------------------------------|
E|--8\----------------------------------------------|

G|-----------------------------------------------------------------------------|
D|-----------------------------------------------------------------------------|
A|--3--3--3--3--3--3--3--3--------------------------6--6--6--6--6--6--6--6-----|
E|--------------------------4--4--4--4--4--4--4--4--------------------------1--|

G|--------------------------------------------------|
D|--------------------------------------------------|
A|--3--3--3-----------------6--6--6-----------------| x4
E|-----------6--6--4--4--4-----------1--1--1--1--1--|


Bridge
G|--------------------------------------------------|
D|--------------------------------------------------|
A|--3--3--3-----------------6--6--6--8--8--8--8--8--| x4
E|-----------6--6--4--4--4--------------------------|

G|-------------------------------------------------|
D|-------------------------------------------------|
A|--8--8--8--8--8--8--8--8--8--8--8--8--6--6--6----|
E|-------------------------------------------------|


Chorus
G|--------------------------------------------------------------------------------------------------|
D|--------------------------------------------------------------------------------------------------|
A|--3--3--3--3--3--3--3--3--------------------------6--6--6--6--6--6--6--6--5--5--5--5--5--5--5--5--|
E|--------------------------4--4--4--4--4--4--4--4--------------------------------------------------|

G|-----------------------------------------------------------------------------|
D|-----------------------------------------------------------------------------|
A|--3--3--3--3--3--3--3--3--------------------------6--6--6--6--6--6--6--6-----|
E|--------------------------4--4--4--4--4--4--4--4--------------------------1--|


Outro
G|--------------------------------------------------|
D|--------------------------------------------------|
A|--3--3--3-----------------6--6--6-----------------| x7
E|-----------6--6--4--4--4-----------1--1--1--1--1--|

G|-----------------------------------------------------------|
D|-----------------------------------------------------------|
A|-----------------------------------------------------------|
E|--1--1--1--1--1--1--1--1--1--1--1--1--1--1--1--1--6\-------|
*************************************************************************************************************
bigbasstabs.com

Other versions of Break The Rules

Break the rulesBass tabs

Almost there ...

Sign in to get your own page with links to favourite songs and more. You are just one click away...

Login with Facebook Login with Google