Log in

One click and you are in

Login with Facebook Login with Google

Why sign up and log in

Guitar Tabs Explorer
Ray Charles guitar tabs for I got a woman

Guitar tabs with lyrics

  • Capo on 3rd
Title:  I Got A chord diagramA majorA Woman
Author and Copyright: MississippiHans (arr.+tab.)

Time:   4/4
Tempo:  Q=120
Capo:   3

Fingerstyle version with accompaniment and melody/harmony elements.
Play bass quarters with your right-hand thumb and insert eighths.
The chord names above the tab lines indicate the left-hand position.
Intro:

E|--------------------|
B|--------------------|
G|--------------------|
D|--------------------|
A|--------------------|
E|--------------------|
        Well, I got a


Verse1+2:
   A chord diagramE MajorE                         A chord diagramB7B7                        A chord diagramE MajorE              A chord diagramA majorA         A chord diagramE MajorE              A chord diagramE7E7
E|-------------------------|-------------------------|------------------------|--------------------------|
B|----0-------0---0--------|----0-------0---0--------|----0-------0---2-------|----0-------0---3---------|
G|----1-------1---1--------|----2-------2---2--------|----1-------1---2-------|----1-------1---1---------|
D|--------2------------2---|--------1------------1---|--------2------------2--|--------2------------2----|
A|-------------------------|-2--------------2--------|----------------0-------|--------------------------|
E|-0--------------0--------|-------------------------|-0----------------------|-0--------------0---------|
   wo- man,            way over town,         she's good to me,            oh,  yeah.          Said I got a
   lovin',          early in the mornin',     just for me,                 oh,  yeah.          She saves her

   A chord diagramA majorA                          A chord diagramA7A7                         A chord diagramB7B7
E|--------------------------|--------------------------|--------------------------|--------------------------|
B|----2-------2---2---------|-----2------2---2---------|-----0------0---0---------|-----0------0---0---------|
G|----2-------2---2---------|-----0------0---0---------|-----2------2---2---------|-----2------2---2---------|
D|--------2------------2----|---------2-----------2----|---------1-----------1----|--------1------------1----|
A|-0--------------0---------|-0--------------0---------|-2--------------2---------|-2--------------2---------|
E|--------------------------|--------------------------|--------------------------|--------------------------|
   wo-man,          way over town,            she's good me,                 whoa,  yeah.        She gives me
   lovin',          early in the mornin',     just for   me,                 oh,    yeah.        She saves her

   A chord diagramE MajorE                          A chord diagramE7E7                         A chord diagramA majorA                          A chord diagramA7A7
E|--------------------------|--------------------------|--------------------------|--------------------------|
B|-----0------0---0---------|-----3------3---3---------|-----2-------2--2---------|-----2------2---2---------|
G|-----1------1---1---------|-----1------1---1---------|-----2-------2--2---------|-----0------0---0---------|
D|---------2-----------2----|--------2------------2----|---------2-----------2----|---------2-----------2----|
A|--------------------------|--------------------------|-0--------------0---------|-0--------------0---------|
E|-0--------------0---------|-0--------------0---------|--------------------------|--------------------------|
   money      when I'm in     need.            Yeah, she's a kind of         friend, indeed.           I got a
   lovin',        just for    me,              always    loves me,        so  tender-ly.               I got a

   A chord diagramE MajorE                          A chord diagramB7B7                         A chord diagramE MajorE              A chord diagramA majorA           A chord diagramE MajorE
E|--------------------------|--------------------------|--------------------------|--------------------------|
B|-----0------0---0---------|-----0------0---0---------|-----0------0---2---------|-----0------0---0---------|
G|-----1------1---1---------|-----2------2---2---------|-----1------1---2---------|-----1------1---1---------|
D|---------2-----------2----|---------1-----------1----|---------2-----------2----|---------2-----------2----|
A|--------------------------|-2--------------2---------|----------------0---------|--------------------------|
E|-0--------------0---------|--------------------------|-0------------------------|-0--------------0---------|
   wo- man,          way over town.            She's good to me,             whoa, yeah.        She saves her
   wo- man,          way over town.            She's good to me,             whoa, yeah.

Interlude:
   A chord diagramE MajorE
E|-----0-----------0---4-----------|-----0-----------0---------|-----0-----------0---4-----------|
B|-------------2---------------2 --|p0-----------2-------------|-------------2---------------2---|
G|---------------------------------|---------------------------|---------------------------------|
D|---------2---------------2-------|---------2------------2----|---------2---------------2-------|
A|---------------------------------|---------------------------|---------------------------------|
E|-0---------------0---------------|-0---------------0---------|-0---------------0---------------|
       She's there to love me,           both day and night.         Never grumbles or fusses,

E|-----0-----------0---------|-----0-----------0---4-----------|-----0-----------0---------|
B|p0-----------2-------------|-------------2---------------2---|p0-----------2-------------|
G|---------------------------|---------------------------------|---------------------------|
D|---------2------------2----|---------2---------------2-------|---------2------------2----|
A|---------------------------|---------------------------------|---------------------------|
E|-0---------------0---------|-0---------------0---------------|-0---------------0---------|
       always treats me right.     Never runnin' in the streets,     leavin' me alone.

                                                      A chord diagramE7E7
E|-----0-----------0---4-----------|---------------------------------|
B|-------------2---------------2---|p0---0-------0-------3-------3---|
G|---------------------------------|---------------------------------|
D|---------2---------------2-------|---------2---------------2-------|
A|---------------------------------|---------------------------------|
E|-0---------------0---------------|-0---------------0---------------|
       she knows a woman's place,        is right there, now, in her home. I got a

Verse3:
   A chord diagramA majorA                          A chord diagramB7B7                         A chord diagramE MajorE              A chord diagramA majorA           A chord diagramE MajorE
E|--------------------------|--------------------------|--------------------------|--------------------------|
B|-----2------2---2---------|-----0------0---0---------|-----0------0---2---------|-----0------0---0---------|
G|-----2------2---2---------|-----2------2---2---------|-----1------1---2---------|-----1------1---1---------|
D|---------2-----------2----|---------1-----------1----|---------2-----------2----|---------2-----------2----|
A|-0--------------0---------|-2--------------2---------|----------------0---------|--------------------------|
E|--------------------------|--------------------------|-0------------------------|-0--------------0---------|
   wo- man,          way over town             she's good to me,             oh,    yeah.        Said, I got a

   A chord diagramA majorA                          A chord diagramA7A7                         A chord diagramB7B7
E|--------------------------|--------------------------|--------------------------|--------------------------|
B|----2-------2---2---------|-----2------2---2---------|-----0------0---0---------|-----0------0---0---------|
G|----2-------2---2---------|-----0------0---0---------|-----2------2---2---------|-----2------2---2---------|
D|--------2------------2----|---------2-----------2----|---------1-----------1----|--------1------------1----|
A|-0--------------0---------|-0--------------0---------|-2--------------2---------|-2--------------2---------|
E|--------------------------|--------------------------|--------------------------|--------------------------|
   wo-man,          way over town,            she's good me,                 whoa,  yeah.       Well, she's my

   A chord diagramE MajorE                          A chord diagramE7E7                         A chord diagramA majorA                          A chord diagramA7A7
E|--------------------------|--------------------------|--------------------------|--------------------------|
B|-----0------0---0---------|-----3------3---3---------|-----2-------2--2---------|-----2------2---2---------|
G|-----1------1---1---------|-----1------1---1---------|-----2-------2--2---------|-----0------0---0---------|
D|---------2-----------2----|--------2------------2----|---------2-----------2----|---------2-----------2----|
A|--------------------------|--------------------------|-0--------------0---------|-0--------------0---------|
E|-0--------------0---------|-0--------------0---------|--------------------------|--------------------------|
   ba- by,          don't you understand?      Yeah, I,              I'm her lovin' man.               I got a

   A chord diagramE MajorE                          A chord diagramB7B7                         A chord diagramE MajorE              A chord diagramA majorA           A chord diagramE MajorE
E|--------------------------|--------------------------|--------------------------|--------------------------|
B|-----0------0---0---------|-----0------0---0---------|-----0------0---2---------|-----0------0---0---------|
G|-----1------1---1---------|-----2------2---2---------|-----1------1---2---------|-----1------1---1---------|
D|---------2-----------2----|---------1-----------1----|---------2-----------2----|---------2-----------2----|
A|--------------------------|-2--------------2---------|----------------0---------|--------------------------|
E|-0--------------0---------|--------------------------|-0------------------------|-0--------------0---------|
   wo- man,          way over town.            She's good to me,             whoa, yeah.       Well, don't you


Outro:

E|---------------------------|---------------------------|---------------------------|
B|-----0-------0---0---------|-----0-------0---0---------|-----0-------0---0---------|
G|-----1-------1---1---------|-----1-------1---1---------|-----1-------1---1---------|
D|---------2------------2----|---------2------------2----|---------2------------2----|
A|---------------------------|---------------------------|---------------------------|
E|-0---------------0---------|-0---------------0---------|-0---------------0---------|
know she's allright?  Don't you know, she's allright? She's allright, she's allright ...


************************************

| p    Pull-off

Other versions of I Got A Woman

I got a womanChords

↓ Add and view comments below ↓

What do you think about this song and these tabs?

Add your comments, questions, rant or a thumbs up below.

Almost there ...

Sign in to get your own page with links to favourite songs and more. You are just one click away...

Login with Facebook Login with Google